Song name
# A B C D E F G H I J K L M N O P Q R S T U V W X Y Z

The Nightwatchman - Let Freedom Ring tab

Ben weasel and his iron string quartet
(This is just the lead through the song, so if you can play this then
you should be right to figure out the power chords for the rythm.)
(o.k here they are then D,A,B,F#,G,D,A, just switch the last D and A the second time.)
Let freedom ring
intro:
e|-5-----------------------------|-7-5-----------5-----|
B|---8-7-5-7-8-7-----5-7-8-7-5---|-----8-7-5-7-8---8-7-|
G|---------------4-7-----------7-|---------------------|
D|-------------------------------|---------------------|
A|-------------------------------|---------------------|
D|-------------------------------|---------------------|

e|-5-----------------------------|-7-5-----5-----------|
B|---8-7-5-7-8-7-----5-7-8-7-5---|-----8-7---8-7-5-----|
G|---------------4-7-----------7-|-----------------7---|
D|-------------------------------|---------------------|
A|-------------------------------|---------------------|
D|-------------------------------|---------------------|

After 1st verse
e|-------------------------|---------------------------|
B|--------7----------------|--------7----------------7-|
G|----------77---6---6-----|----------77---6-6---6-----|
D|-7----7----------9---9-7-|-7----7------------9---7---|
A|---99--------------------|---99----------------------|
E|-------------------------|---------------------------|


e|---------------------------|-------------5---------------------------5-|
B|--------7----------------7-|--------7------8-7-5---------------8-7-5---|
G|-7----7---77---6-6---6-----|-7----7---77---------7-6-4---4-6-7---------|
D|---99--------------9----7--|---99----------------------7---------------|
A|---------------------------|-------------------------------------------|
E|---------------------------|-------------------------------------------|

x4                                       
e|-7-----------------|
B|---10-9-7-9-10-9-7-|
G|-------------------|
D|-------------------|
A|-------------------|
E|-------------------|

 this plus--->them     5th     6th            7th              Last   
e|-7-----------------|-------|--------------|----------------|-------7-----11-9-7-|
B|---10-9-7-9-10-9-7-|-7-----|-7---7--------|-7--------------|-7-------9-7--------|
G|-------------------|---8---|--8----8------|-----8----------|---8----------------|
D|-------------------|-----9-|---9-----9----|---------9------|-----9--------------|
A|-------------------|-------|-----------10-|-------------10-|--------------------|
E|-------------------|-------|--------------|----------------|--------------------|


outro
e|-5-----------------------------|-7-5-----------5-----|
B|---8-7-5-7-8-7-----5-7-8-7-5---|-----8-7-5-7-8---8-7-|
G|---------------4-7-----------7-|---------------------|
D|-------------------------------|---------------------|
A|-------------------------------|---------------------|
D|-------------------------------|---------------------|

e|-5-----------------------------|-7-5-----5-----------|
B|---8-7-5-7-8-7-----5-7-8-7-5---|-----8-7---8-7-5-----|
G|---------------4-7-----------7-|-----------------7---|
D|-------------------------------|---------------------|
A|-------------------------------|---------------------|
D|-------------------------------|---------------------|

e|-10-7----7---------------|---7--------------|
B|------10---7-7-7-8p7-----|-----10-7---10-10-|
G|---------------------9p7-|-7--------9-------|
D|-------------------------|------------------|
A|-------------------------|------------------|
E|-------------------------|------------------|

e|-5-5-5-7p5-------------------|----------------------|
B|-----------8p7-7-7-7-8p7p5---|---7-5----------------|
G|---------------------------7-|-7-----7-7\\\\\\\\\\\-|
D|-----------------------------|----------------------|
A|-----------------------------|----------------------|
E|-----------------------------|----------------------|
Tap to rate this tab
 
# A B C D E F G H I J K L M N O P Q R S T U V W X Y Z