Song name
# A B C D E F G H I J K L M N O P Q R S T U V W X Y Z

The Noisettes - Scratch Your Name tab

Song: Scratch Your Name
Artist: The Noisettes
Album: What's the time Mr. Wolf?

Standard Tuning
(Or he tuned half a step down, I'm not sure)

Intro Riff

E||---------------------------|-------------------------|
B||---------------------------|-------------------------|
G||---------------------------|-------------------------|
D||--8--6--8--------------6---|--10--6----6-------6--8--|
A||--------------------8------|----------------8--------|
E||---------------------------|-------------------------|


                
   ---------------------------|---------------------|
   ---------------------------|---------------------|
   ---------------------------|---------------------|
   ---------------------------|---------------------|
   -----6--4--6--------6---8--|--4------------------|
   ---------------------------|---------6-----------|
Tap to rate this tab
# A B C D E F G H I J K L M N O P Q R S T U V W X Y Z