Song name
# A B C D E F G H I J K L M N O P Q R S T U V W X Y Z

The Noisettes - Dont Upset The Rhythm tab

Highlighted       Show chord diagrams
-------------------------------------------------------------------------------
		   Don't Upset The Rhythm - The Noisettes
-------------------------------------------------------------------------------
Tabbed by: Alex Miller

Tuning: Standard

Chord used : Ab minor, B, E, Eb7

Intro

Abm

B
Don't upset the rhythm no
Abm  

B            
Don't upset the rhythm


Verse 1:


Abm
The time is right
B
Th' sun is sleeping in the sky
Abm
Free your mind
B
You never know what you might find

(Then comes this pattern)

e|------------------------------|
B|------------------------------|
G|------------------------------|   X2
D|--4-4-3--4-4-3--4-4-3-----3---|
A|----------------------4--4----|
E|------------------------------|

What's your vise ?
You know we won't compromise

Abm
So let me show you
B
Something super beautiful
Abm
Lets rock the boat
B
The magic is unstoppable !
Abm
Four on the floor
B
That's the rhythm you've been wai-ting for

e|------------------------------|
B|------------------------------|
G|------------------------------|   X2
D|--4-4-3--4-4-3--4-4-3-----3---|
A|----------------------4--4----|
E|------------------------------|

Pure delight - Kick, Snare, hat, ride!


Bridge:

Abm            B
Its all up to you
                 E
And whatever you do (don't)
             Eb7
Cut into my action
4-3-2-1..

Chorus:

Abm
(Go baby, go baby GO !)
B
Don't upset the rhythm no
Abm
(Go baby, go baby GO !)
B
Don't upset the rhythm
Abm
(Go baby, go baby GO !)
B
Don't upset the rhythm, don't you dare
Abm
(Go baby, go baby GO !)
B
Don't upset the rhythm


Verse 2:

Abm
Skin and bone
B
And the baton microphone
Abm
Can't get home
B
But you can use my dog and bone
Abm
We'll crank that stereo
B
Even when the speakers blow

e|------------------------------|
B|------------------------------|
G|------------------------------|   X2
D|--4-4-3--4-4-3--4-4-3-----3---|
A|----------------------4--4----|
E|------------------------------|

D-I-Y
Just meet me up in paradise..


(Just repeat the same chords for the different sections throughout)



Alternatively for the bridge the guitar plays :

e|--7-7-7--9-7-7-7-7--6-7-7-7--9-7-7-7-7-6-|
B|--7-7-7--9-7-7-7-7--6-7-7-7--9-7-7-7-7-6-|
G|-----------------------------------------|  (This comes in at certain
D|-----------------------------------------|   parts during the song.
A|-----------------------------------------|   Listen to get the rhythm)
E|-----------------------------------------|

Listen to the song to get the parts right, it's fairly easy and all
based in the key of Ab minor.

:)
Tap to rate this tab
# A B C D E F G H I J K L M N O P Q R S T U V W X Y Z