Song name
# A B C D E F G H I J K L M N O P Q R S T U V W X Y Z

The Number 12 Looks Like You - Sleeping With The Fishes See tab

The Number 12 Looks Like You
Sleeping With The fishes, See?
Mongrel
Tabbed by Joe B.

  Some parts I didn't tab out for Guitar II but I'll do that later, other than that I 
it was okay. So please leave any comments and corrections.
                          Legend
                        ----------
                       p - Pull Off
                       h - Hammer On
                     PM. - Palm Mute
                      PH - Pinch Harmonics
                     [?] - Harmonic
                       b - Bend
                       r - Release
                       ~ - Let ring

 Guitars I & II
|---------------------------------------------------------------------------|
|---------------------------------------------------------------------------|
|---------------------------------------------------------------------------|
|---------------------------------------------------------------------------|
|---------------------------------------------------------------------------|
|--6p3--6p3--11111111--6p3--6p3--11111111--6p3--6p3--111-111-111--6p3--6p3--|
PM           ........            ........            ... ... ...

Guitars I & II                              x3
----------||--------------------------------||----------------------|
----------||--------------------------------||----------------------|
----------||-------------------------------*||----------------------|
----------||-------------------------------*||----------------------|
----------||-------------------------7h10p7-||----------------------|
--1111111-||-7-0-0-6-0-0-7-0-0-6-0-0--------||--7-0-0-6-0-0-(7b)==r-|
PM.......    . . . . . . . . . . . .            . . . . . . PH

Guitars I & II
|---------------------------------------------------------------------------|
|---------------------------------------------------------------------------|
|---------------------------------------------------------------------------|
|---------------------------------------------------------------------------|
|---------------------------------------------------------------------------|
|--6p3--6p3--11111111--6p3--6p3--11111111--6p3--6p3--111-111-111--6p3--6p3--|
PM           ........            ........            ... ... ...

Guitar I                                      x6
|----------||---------------------------------||
|----------||---------------------------------||
|----------||---------------------------------||
|----------||--7~---6~----3---7~---6~--3-3-3--||
|----------||--5~---4~----1---5~---4~--1-1-1--||
|--1111111-||--5~---4~--0-1---5~---4~--1-1-1--||
PM .......              .              . . .

Guitar II                                       x6
|----------||-----------------------------------||
|----------||-----------------------------------||
|----------||----------------------------------*||
|----------||--7~---6~----3~---7~---6~--3-3-3--*||
|----------||--7~---6~----3~---7~---6~--3-3-3---||
|--1111111-||--5~---4~--0-1~---5~---4~--1-1-1---||
PM .......              .               . . .

Guitars I & II
|---------------------------------------------------------------------------|
|---------------------------------------------------------------------------|
|---------------------------------------------------------------------------|
|---------------------------------------------------------------------------|
|---------------------------------------------------------------------------|
|--6p3--6p3--11111111--6p3--6p3--11111111--6p3--6p3--111-111-111--6p3--6p3--|
PM           ........            ........            ... ... ...

Guitars I & II                                                   x4
|-----------||---------------------------------------------------||
|-----------||---------------------------------------------------||
|-----------||----------------------------------------7-7-(7b)--*||
|-----------||--4---4-4-7---4-----------4---4-4-7---4-----------*||
|-----------||----5-------5---4-4-4-4-4---5-------5--------------||
|--1111111--||---------------------------------------------------||
PM .......        .       .   . . . . .  .        .        PH


Guitar I
|--------------------------------||------------------------------------------|
|-------------------9---------12-||-10------------10------------9------------|
|--9--12--7--7h9h10---9h10h12----||---10-9-7-9-10---10-9-7-9-10--10-9-7-9-10-|
|--x--x---x----------------------||------------------------------------------|
|--7--10--5----------------------||------------------------------------------|
|--------------------------------||------------------------------------------|
                                                    x5
----------------------------------------------------||
-9------------10------------10----------------------||
--10-9-7-9-10---10-9-7-9-10---10-9-7-9-10-----------||
----------------------------------------------------||
-------------------------------------------3-2-5----||
-------------------------------------------------3b-||


Guitars I & II
|---------------------------------------------------------------------------|
|---------------------------------------------------------------------------|
|---------------------------------------------------------------------------|
|---------------------------------------------------------------------------|
|---------------------------------------------------------------------------|
|--6p3--6p3--11111111--6p3--6p3--11111111--6p3--6p3--111-111-111--6p3--6p3--|
PM           ........            ........            ... ... ...

Guitars I & II                                  x4                        x2
|----------||-----------------------------------||------------------------||
|----------||-----------------------------------||------------------------||
|----------||----------------------------------*||-----------------------*||
|----------||------444---------444-------------*||-----------------------*||
|----------||----------444-555-----777-----444--||222---------111---------||
|--1111111-||--777---------------------555------||----333-333-----222-222-||
PM .......   ... ... ... ... ... ... ... ...       ... ... ... ... ... ...


 Repeat this section and last two sections 3 times
|-------------------||    |------|------------------------------------------|
|-------------------||    |------|-[3]-(vibrato w/ Whammy bar)--------------|
|------------------*||    |--4~--|------------------------------------------|
|------------------*||    |--4~--|------------------------------------------|
|-------------------||    |--2~--|------------------------------------------|
|--000-111-222-333--||    |------|--------------------------0-(Whammy Down)-|
PM ... ... ... ...

Guitar I                                               x6
||-----------------------------------------------------||
||-----------------------------------------------------||
||----------------------------------------------------*||
||----1----0-----------------------1----0-------------*||
||--3--3-3----------3-----3/5\3--3--3-3----------3-----||
||-----------3--0-4---3-1-----------------3--0-4---3-1-||


||------------------------------||
||-------------------3h4-3---3--||
||----3-3h5p3---3h5--------5---*||
||--5---------5----------------*||
||------------------------------||
||------------------------------||
make last 3 a 5 every other time

Guitar I
||-----------------------------------------------------||
||-----------------------------------------------------||
||----------------------------------------------------*||
||----1----0-----------------------1----0-------------*||
||--3--3-3----------3-----3/5\3--3--3-3----------3-----||
||-----------3--0-4---3-1-----------------3--0-4---3-1-||
Tap to rate this tab
# A B C D E F G H I J K L M N O P Q R S T U V W X Y Z