Song name
# A B C D E F G H I J K L M N O P Q R S T U V W X Y Z

The Number 12 Looks Like You - El Pinata De La Muerte tab

IGNORE THE NOTE LENGTHS. I exported this out of Guitar Pro of what I thought the time
and stuff were, they're probably wrong.

But I think I did a good job on the tab. Maybe I'll finish this after I'm finished with
I have like 3 parts left to tab out in that.

For the ghost notes I'm not really sure what he's doing, it sounds like he's really
palm muting it or lightly playing it or something. And on the slides down he does something
where he goes down, then back up a bit and down again really quickly and I wasn't sure 
to tab that out.

Enjoy!

     PM PM PM PM PM PM PM PM PM PM PM PM PM PM PM PM PM PM
     S  S  S  S  S  S  S  S  S  S  S  S  S  S  S  S  S  S
E||--------------------------------------------------------|
B||--------------------------------------------------------|
G||--------------------------------------------------------|
D||--------------------------------------------------------|
A||--3--3--3--3--------------------------------------------|
E||--------------3--3--3--3--4--4--4--4--0--0--0--0--0--0--|


  PM PM PM PM PM PM PM PM PM PM PM PM PM PM PM PM PM PM
  S  S  S  S  S  S  S  S  S  S  S  S  S  S  S  S  S  S
--------------------------------------------------------|
--------------------------------------------------------|
--------------------------------------------------------|
--------------------------------------------------------|
--3--3--3--3--------------------------------------------|
--------------3--3--3--3--4--4--4--4--0--0--0--0--0--0--|


  PM PM PM PM PM PM PM PM PM PM PM PM PM PM PM PM
  S  S  S  S  S  S  S  S  S  S  S  S  S  S  S  S     E  E   E  E  E
--------------------------------------------------|------------------|
--------------------------------------------------|------------------|
--------------------------------------------------|--7--9--10--------|
--------------------------------------------------|--x--x---x--3--4--|
--3--3--3--3--------------------------------------|--5--7---8--x--x--|
--------------3--3--3--3--4--4--4--4--0--0--0--0--|------------1--2--|


  PM PM PM PM PM PM PM PM PM PM PM PM PM PM PM PM
  S  S  S  S  S  S  S  S  S  S  S  S  S  S  S  S     E  E   E  E  E
--------------------------------------------------|------------------|
--------------------------------------------------|------------------|
--------------------------------------------------|--7--9--10--------|
--------------------------------------------------|--x--x---x--3--4--|
--3--3--3--3--------------------------------------|--5--7---8--x--x--|
--------------3--3--3--3--4--4--4--4--0--0--0--0--|------------1--2--|


  PM PM PM PM PM PM PM PM PM PM PM PM PM PM PM PM
  S  S  S  S  S  S  S  S  S  S  S  S  S  S  S  S     E  E   E  E  E
--------------------------------------------------|------------------|
--------------------------------------------------|------------------|
--------------------------------------------------|--7--9--10--------|
--------------------------------------------------|--x--x---x--3--4--|
--3--3--3--3--------------------------------------|--5--7---8--x--x--|
--------------3--3--3--3--4--4--4--4--0--0--0--0--|------------1--2--|


  E  E  E  E  E     E  E   E  E  Q    E  E   E  E  Q    Q
-----------------|-------------------------------------------|
-----3-----3-----|-------------------------------------------|
-----4-----4-----|--7--9--10----------7--9--10---------------|
-----------------|--x--x---x--3--4----x--x---x--3--4---------|
-----------------|--5--7---8--x--x----5--7---8--x--x---------|
-----------------|------------1--2--------------1--2---------|


  E  E   E  E  Q    E  E   E  E  Q    Q
-------------------------------------------|
-------------------------------------------|
--7--9--10----------7--9--10---------------|
--x--x---x--3--4----x--x---x--3--4---------|
--5--7---8--x--x----5--7---8--x--x---------|
------------1--2--------------1--2---------|


  E  E   E  E  Q    E  E   E  E  Q    Q
-------------------------------------------|
-------------------------------------------|
--7--9--10----------7--9--10---------------|
--x--x---x--3--4----x--x---x--3--4---------|
--5--7---8--x--x----5--7---8--x--x---------|
------------1--2--------------1--2---------|


  E  E   E  E  Q    E  E   E  E  Q    Q        S.  S.  Q.      E  E  E
-------------------------------------------|----------------------------|
-------------------------------------------|----------------------------|
--7--9--10----------7--9--10---------------|-------------------4--------|
--x--x---x--3--4----x--x---x--3--4---------|----------------------5-----|
--5--7---8--x--x----5--7---8--x--x---------|-------------------------4--|
------------1--2--------------1--2---------|--(3)-(4)-10\---------------|


   E    E    Q     Q         E    E    Q     Q     E  E  E
-------------------------|----------------------------------|
-------------------------|----------------------------------|
-------------------------|-------------------------4--------|
-------------------------|----------------------------5-----|
-------------------------|-------------------------------4--|
--(3)--(4)--10\----4\----|--(3)--(4)--10\----4\-------------|


   E    E    Q     Q         E    E    Q     Q         E    E    Q     Q
-------------------------|-------------------------|-------------------------|
-------------------------|-------------------------|-------------------------|
-------------------------|-------------------------|-------------------------|
-------------------------|-------------------------|-------------------------|
-------------------------|-------------------------|-------------------------|
--(3)--(4)--10\----4\----|--(3)--(4)--10\----4\----|--(3)--(4)--10\----4\----|


   E    E    Q     E  E  E      E    E    Q     Q
----------------------------|-------------------------|
----------------------------|-------------------------|
-------------------4--------|-------------------------|
----------------------5-----|-------------------------|
-------------------------4--|-------------------------|
--(3)--(4)--10\-------------|--(3)--(4)--10\----4\----|


   E    E    Q     Q     E  E  E
----------------------------------||
----------------------------------||
-------------------------4--------||
----------------------------5-----||
-------------------------------4--||
--(3)--(4)--10\----4\-------------||


Duration Legend
---------------
W - whole
H - half
Q - quarter
E - 8th
S - 16th
T - 32nd
X - 64th
. - note dotted
|-n-|  - n-tuplets


Tablature Legend
----------------
L - tied note
x - dead note
g - grace note
(n) - ghost note
> - accentuded note
NH - natural harmonic
AH - artificial harmonic
TH - tapped harmonic
SH - semi harmonic
PH - pitch harmonic
h - hammer on
p - pull off
b - bend
br - bendRelease
pb - preBend
pbr - preBendRelease
brb - bendReleaseBend
\n/ - tremolo bar dip
\n - tremolo bar dive
-/n - tremolo bar Release up
/n\ - tremolo bar inverted dip
/n - tremolo bar return
-\n - tremolo bar Release down
S - shift slide
s - legato slide
/ -  slide into from below or out of upwards
\ -  slide into from above or out of downwards
~ - vibrato
W - wide vibrato
tr - trill
TP - tremolo picking
T - tapping
S - slap
P - pop
< - fade in
^ - brush up
v - brush down
Tap to rate this tab
# A B C D E F G H I J K L M N O P Q R S T U V W X Y Z