Song name
# A B C D E F G H I J K L M N O P Q R S T U V W X Y Z

The Number 12 Looks Like You - If They Holler Dont Let Go tab

Help us improve GuitareTab! Take a short survey!
                    PM PM      PM PM PM PM               
E||----------------------------------------|
B||----------------------------------------|
G||--13--13\9--9----------9--9-------------|
D||--13--13\9--9----------9--9-------------|
A||--11--11\7--7----0--0--7--7-0--0--0--0--|
E||-----------------0--0-------0--0--0--0--|


  

                 PM PM     PM PM PM               PM PM PM PM PM PM  
                           |--3--|                |--3--|  |--3--|   
|----------------------------------------|---------------------------|
|----------------------------------------|---------------------------|
|--11--11--11-----------11-----------11--|---------------------------|
|---x---x---x------------x------------x--|---9-----------------------|
|--10--10--10-----0--0--10--0--0--0--10--|--10-----0--0--0--0--0--0--|
|---7---7---7-----0--0---7--0--0--0---7--|---7-----0--0--0--0--0--0--|


                 PM PM      PM PM PM PM    
|----------------------------------------|
|----------------------------------------|
|--13--13\9--9----------9--9-------------|
|--13--13\9--9----------9--9-------------|
|--11--11\7--7----0--0--7--7-0--0--0--0--|
|-----------------0--0-------0--0--0--0--|


                 PM PM     PM PM PM               PM PM PM PM PM PM  
                           |--3--|                |--3--|  |--3--|   
|----------------------------------------|---------------------------|
|----------------------------------------|---------------------------|
|--11--11--11-----------11-----------11--|---------------------------|
|---x---x---x------------x------------x--|---9-----------------------|
|--10--10--10-----0--0--10--0--0--0--10--|--10-----0--0--0--0--0--0--|
|---7---7---7-----0--0---7--0--0--0---7--|---7-----0--0--0--0--0--0--|


                 PM PM      PM PM PM PM  
  
|----------------------------------------|
|----------------------------------------|
|--13--13\9--9----------9--9-------------|
|--13--13\9--9----------9--9-------------|
|--11--11\7--7----0--0--7--7-0--0--0--0--|
|-----------------0--0-------0--0--0--0--|


                 PM PM     PM PM PM               PM PM PM PM PM PM  
                           |--3--|                |--3--|  |--3--|   
   
|----------------------------------------|---------------------------|
|----------------------------------------|---------------------------|
|--11--11--11-----------11-----------11--|---------------------------|
|---x---x---x------------x------------x--|---9-----------------------|
|--10--10--10-----0--0--10--0--0--0--10--|--10-----0--0--0--0--0--0--|
|---7---7---7-----0--0---7--0--0--0---7--|---7-----0--0--0--0--0--0--|

Let all of the notes ring. I put the whole part in because there's a weird pattern
   
|------------------------------|----------------------------------|
|------9------9------9------9--|------10------10------10------10--|
|--11-----11-----11-----11-----|--12------12------12------12------|
|------------------------------|----------------------------------|
|------------------------------|----------------------------------|
|------------------------------|----------------------------------|



|---------------------------|------------------------------|
|------13------13-----------|--9------9------9------9------|
|--16------16------19\11----|-----11-----11-----11-----11--|
|---------------------------|------------------------------|
|---------------------------|------------------------------|
|---------------------------|------------------------------|


     
|----------------------------------|---------------------------|
|------10------10------10------10--|------13------13-----------|
|--12------12------12------12------|--16------16------19\11----|
|----------------------------------|---------------------------|
|----------------------------------|---------------------------|
|----------------------------------|---------------------------|


  
|------------------------------|----------------------------------|
|--9------9------9------9------|------10------10------10------10--|
|-----11-----11-----11-----11--|--12------12------12------12------|
|------------------------------|----------------------------------|
|------------------------------|----------------------------------|
|------------------------------|----------------------------------|


                                    
|--------------------------------------------------|-------------------||
|--------------------------------------------------|-------------------||
|--16-16-16-16----16-16-16-16----16----------------|-------------------||
|--16-16-16-16----16-16-16-16----16----------------|-------------------||
|--14-14-14-14----14-14-14-14----14----------------|-------------------||
|--------------------------------------------------|-------------------||

PM = Palm Mute
\ = Slide down
Related for If They Holler Dont Let Go tab