Song name
# A B C D E F G H I J K L M N O P Q R S T U V W X Y Z

The Number 12 Looks Like You - Texas Dolly tab

Band: The Number 12 Looks Like You
Album: Nuclear. Sad. Nuclear.
Track: Texas Dolly

Tuning: Standard 

pm: palm mute. the periods (.) indicate muted notes.
/: slide
/t: slide and tremolo pick
~: let ring
h: hammer-on
p: pull-off
t: tremolo
v: vibrato
*: pinch harmonic (squeal)


Note: The parts at 0:02 and 0:09 are correct, the low notes are played on bass.

Guitar 1 (0:00)
E--------|
B--------|
G--------|
D--------|
A--21/t2-|
E--------|
pm:

Guitar 2 (0:00)
E--------|
B--------|
G--------|
D--------|
A--19/t3-|
E--------|
pm:

Both Guitars (0:02)
E------------------------------------------|
B--5---5---5-5---5---5-5---5---3---------3-|
G--------------------------------------0---|
D--------------------------------2---2-----|
A------------------------------------------|
E----------------------------------3-------|
pm:

Both Guitars (0:09)
E------------------------------------------|  
B--5---5-5---5---5---5-5---5---3---------3-|
G--------------------------------------0---|
D--------------------------------2---2-----|
A------------------------------------------|
E----------------------------------3-------|
pm:



Both Guitars (0:16)
E-----------------------------------|
B--88888888888888887777777777777777-|
G--99999977777777777777777777777777-|
D-----------------------------------| x2
A-----------------------------------|
E-----------------------------------|
pm:

Both Guitars (0:29)
E------------------------------------------------------------------|
B----5---5---5---3---3---3---3---3-----3-----3-----3-----3-----3---|
G------------------------------------4-----4-----4-----4-----4---4-|
D--5---5---5---4---4---4---4---4---2-----2-----2-----2-----2-------| x2
A------------------------------------------------------------------|
E------------------------------------------------------------------|
pm:

Both Guitars (0:41)
E---------------------------------------------------|
B----5---5---5---3---3---3---3---3------------------|
G----------------------------------4444444444444444-|
D--5---5---5---4---4---4---4---4---2222222222222222-|
A---------------------------------------------------|
E---------------------------------------------------|
pm:

Both Guitars (0:47)
E--------------------------------------|
B--55555--333333333--------------------|
G---------------------4--4--4--4--4--4-|
D--55555--444444444---2--2--2--2--2--2-|
A--------------------------------------|
E--------------------------------------|
pm:

Both Guitars (0:53)
E--------------------------------------|
B--55555--333333333--------------------|
G---------------------4444444444444444-|
D--55555--444444444---2222222222222222-|
A--------------------------------------|
E--------------------------------------|
pm:

Both Guitars (0:59)
E------------------------|
B--55555--333333333------|
G---------------------4~-|
D--55555--444444444---2~-|
A------------------------|
E------------------------|
pm:

Both Guitars (1:04)
E--------------------|
B--------------------|
G--9-9/5/2-9-9-9-5-2-|
D--------------------| x2
A--7-7/3/0-7-7-7-3-0-|
E--------------------|
pm:

Both Guitars (1:09)
E--------------------------------------12----|
B--------0---------------0----------------12-|
G------0---------------0---------------------|
D--2/4-----5-4-2---2/4-----5-4-5~------------|
A------------------------------5~5~----------|
E----------------0---------------3~----------|
pm:

Guitar 1 (1:16)
E----8p0---12------17----|
B-------------10------15-|
G----------------7-------|
D--7-----7---------------| x8
A------------------------|
E------------------------|
pm:

Guitar 2 (1:16)
E--1t---5t-|
B----------|
G--2t---5t-|
D----------| x4
A----------|
E----------|
pm:

Both Guitars (1:28)
E-----------------------------------|
B--------------------------3t-------|
G-----------------------------------|
D-----9t-5t-7t-4t-5t-0t----------5t-| x2
A--7t-------------------2t----------|
E-----------------------------3t----|
pm:

Both Guitars (1:36)
E----------------------------------|
B----------------33----3333--------|
G----------------------------------|
D----997755445500-------------5555-| x2
A--77--------------2222------------|
E-------------------------3333-----|
pm:...............................

Both Guitars (1:44)
E----------------------------------------------------|
B---------5---6---5-----------------5---6---5--------|
G-----7---------------7-6-7*----7---------------7-6*-|
D--5t---5---5---5---5--------5t---5---5---5---5------| x2
A----------------------------------------------------|
E----------------------------------------------------|
pm:.    .   .   .   .        .    .   .   .   .

Guitar 1 (1:52)
E-------5-4-------|
B-----3-----------|
G-----2-----------|
D--0t-------0t-0t-| x4
A-----------------|
E-----------------|
pm:.        .  .

Guitar 2 (1:52)
E-------2-1-------|
B-----3-----------|
G-----------------|
D--0t-------0t-0t-| x4
A-----------------|
E-----------------|
pm:.        .  .

Guitar 1 (2:00)
E--------13-----13-11-----------------------------------|
B--13-16--------------13-12-11--------------------------|
G------------------------------12-11-10----10-11-10-----|
D---------------------------------------13----------13v-|
A-------------------------------------------------------|
E-------------------------------------------------------|
pm:

Guitar 1 (2:04)
E--------------------------------------------------|
B--------------------------------------------------|
G--------------------------------------------------|
D--13-15-16-15-13-15-16----------------------------|
A--------------------------------------------------|
E--------------------------------------------------|
pm:

Guitar 2 (2:04)
E--------------------------------------------------|
B-----------------------12-15-16-13-12-15-16-13-12-|
G--------------------------------------------------|
D--------------------------------------------------|
A--------------------------------------------------|
E--------------------------------------------------|
pm:

Guitar 1 (2:05)
E--------------------------------------------------|
B--------------------------------------------------|
G--------------------------------------------------|
D--13-15-16-15-13-15-16----------------------------|
A--------------------------------------------------|
E--------------------------------------------------|
pm:

Guitar 2 (2:05)
E--------------------------------------------------|
B-----------------------12-15-16-13-12-15-16-13-12-|
G--------------------------------------------------|
D--------------------------------------------------|
A--------------------------------------------------|
E--------------------------------------------------|
pm:





Guitar 1 (2:06)
E----------------------------------------------------------|
B----------------------------------------------------------|
G----------------------------------------------------------|
D--13-15-16-15-13-15-16-15-13-15-16-15-13-15-16-15-13------|
A-----------------------------------------------------13b*-|
E----------------------------------------------------------|
pm:

Guitar 2 (2:06)
E-----------------------------------------------------12b--|
B--12-15-16-13-12-15-16-13-12-15-16-13-12-15-16-13-12-10b--|
G----------------------------------------------------------|
D----------------------------------------------------------|
A----------------------------------------------------------|
E----------------------------------------------------------|
pm:

Both Guitars (2:09)
E-------------------------|
B-------------------------|
G-------------------------|
D-------------5-----5-----| x3
A--3-3t-3t-3t---6-----6---|
E-----------------7-----7-|
pm:. .  .  .  . . . . . .

Both Guitars (2:18)
E--------------------|
B--------------------|
G--------------------|
D-----------10/4-4-5-|
A--3-3t-3t---8/2-2-3-|
E--------------------|
pm:. .  .

Both Guitars (2:21)
E-------------------------|
B-------------------------|
G-------------------------|
D----------------10/4-4-5-|
A--2-2-2-2-2-2-2--8/2-2-3-|
E--0-0-0-0-0-0-0----------|
pm:. . . . . . .

Both Guitars (2:25)
E---------------------|
B---------------------|
G---------------------|
D------------10/4-4-5-|
A--2-2-2-2-2--8/2-2-3-|
E--0-0-0-0-0----------|
pm:. . . . .

Both Guitars (2:29)
E-------------------------------|
B-------------------------------|
G-------------------------------|
D----------------------10/4-4-5-|
A--2-2t-2---2-2t-2------8/2-2-3-|
E--0-0t-0---0-0t-0--------------|
pm:. .  .   . .  .

Guitar 1 (2:33)
E--------------------|
B--------------------|
G--------------------|
D--------------------|
A--2-2-2-6-8-7-6-8-7-|
E--0-0-0-4-6-5-4-6-5-|
pm:. . . . . . . . .

Guitar 2 (2:33)
E--------------------|
B--------------------|
G--------------------|
D--------------------|
A--2-2-2-4-3-6-5-8-7-|
E--0-0-0-2-1-4-3-6-5-|
pm:. . . . . . . . .

Both Guitars (2:36)
E----------------------------------|
B--3-------------------------------|
G--2-4t-3-4------4p0-4p0---4p0-4p0-|
D-------1-2------------------------| x4
A-----------2t-0-------------------|
E------------------------4---------|
pm:         .

Both Guitars (2:48)
E-----------------------------------|
B--------------------------3t-------|
G-----------------------------------|
D-----9t-5t-7t-4t-5t-0t----------5t-| x2
A--7t-------------------2t----------|
E-----------------------------3t----|
pm:

Both Guitars (2:56)
E-----------------|
B-----------------|
G--9-5-2--9-9-5-2-|
D-----------------|
A--7-3-0--7-7-3-0-|
E-----------------|
Tap to rate this tab
# A B C D E F G H I J K L M N O P Q R S T U V W X Y Z