Song name
# A B C D E F G H I J K L M N O P Q R S T U V W X Y Z

The Number 12 Looks Like You - If These Bullets Could Talk tab

#----------------------------------PLEASE NOTE---------------------------------#
#This file is the author's own work and represents their interpretation of the #
#song. You may only use this file for private study, scholarship, or research. #
#------------------------------------------------------------------------------##

                           IF THESE BULLETS COULD TALK
                   As recorded by The Number 12 Looks Like You
               (From the 2003 Album PUT ON YOUR ROSY RED GLASSES)

Words and Music by The Number 12 Looks Like You
Arranged by The Number 12 Looks Like You
Transcribed by Jonathan Rose

Gtr I (E A D G B E) - 'Untitled'
Gtr II (E A D G B E) - 'Untitled'
Gtr III (E A D G B E) - 'Untitled'
Gtr IV (E A D G B E) - 'Untitled'
Gtr V (E A D G B E) - 'Untitled'

   "What you've.."
    Dancefight Q=210
    Em7                     D          Em7                     D
   4/4
    Gtrs I, II
    PM|   PM|   PM|     PM|            PM|   PM|   PM|     PM|
    E E E E E E E E   E E E Q  E E E   E E E E E E E E   E E E Q  E E E
||------------------|----------------|-----------------|-----------------|
||o-----------------|----------------|-----------------|-----------------|
||------7-----7-----|-7-----7--7-7-7-|-----7-----7-----|-7-----7--7-7-7--|
||------5-----5-----|-5-----4--4-4-4-|-----5-----5-----|-5-----4--4-4-4--|
||o-7-7-7-7-7-7-7-7-|-7-7-7-5--5-5-5-|-7-7-7-7-7-7-7-7-|-7-7-7-5--5-5-5--|
||------------------|----------------|-----------------|-----------------|


  1.,2.,3.                              4.
  N.C.
                                       5/4                  4/4
  PM|   PM|   PM|     PM|   PM|            PM|   PM|   PM|     PM|   PM|
  E E E E E E E E   E E E E E E E E  4x Q  E E E E E E E E   E E E E E E E E
|-----------------|------------------||--------------------|------------------||
|-----------------|-----------------o||--------------------|------------------||
|-----------------|------------------||--------------------|------------------||
|-----5-----4-----|-2-----2-----2S4--||--------5-----4-----|-2-----2-----2S4--||
|-3-3---3-3---3-3-|---3-3---3-3-----o||----3-3---3-3---3-3-|---3-3---3-3------||
|-----------------|------------------||--------------------|------------------||


 "..your own best friend."
  Free your heart Q=142
  E5
  Gtrs I, II
  W          +W           +W
|----------|------------|-------------------|
|----------|------------|-------------------|
|----------|------------|-------------------|
|-2--------|-(2)--------|-(2)---------------|
|-2--------|-(2)--------|-(2)---------------|
|-0--------|-(0)--------|-(0)---------------|
|
| Gtr III
|                          <
| W           W            E  E E E E E E E
|----------|------------|-------------------|
|----------|------------|-----------7-------|
|----------|------------|-------------------|
|----------|------------|-----5---5---5---5-|
|----------|------------|--7----7-------7---|
|----------|------------|-------------------|


  E5
  +W                  +W                  +H.           E E
|-------------------|-------------------|-------------------||
|-------------------|-------------------|-------------------||
|-------------------|-------------------|-------------------||
|-(2)---------------|-(2)---------------|-(2)-----------2---||
|-(2)---------------|-(2)---------------|-(2)-----------2---||
|-(0)---------------|-(0)---------------|-(0)-----------0---||
|
|  E  E E E E E E E    E  E E E E E E E    E  E E E E E E E
|-------------------|-------------------|-------------------||
|-----------7-------|-----------0-------|-----------0-------||
|-------------------|-------------------|-------------------||
|-----5---5---5---5-|-----5---5---5---5-|-----5---5---5---5-||
|--7----7-------7---|--7----7-------7---|--7----7-------7---||
|-------------------|-------------------|-------------------||


 "I'm so tired of looking.."
  (Emadd9)                              (Em)
  Gtrs III, IV
  E E E E E E E E   +E  E E E E E E E   E E E E E E E E   +E  E E E E E E E
|-----------------|-------------------|-----------------|-------------------|
|---------7-------|-----------7-------|---------0-------|-----------0-------|
|-----------------|-------------------|-----------------|-------------------|
|---5---5---5-----|-----5---5---5---5-|---5---5---5-----|-----5---5---5---5-|
|-7---7-------7-7-|-(7)---7-------7---|-7---7-------7-7-|-(7)---7-------7---|
|-----------------|-------------------|-----------------|-------------------|


  (Csus2)                             (Am7)
  E E E E E E E E   E E E E E E E E   E E E E E E E E   E E E E E E E E
|-----------------|-----------------|-----------------|-----------------|
|---------3-----5-|---3-------------|---------------3-|-----------------|
|-----------------|---------4-------|---------5-------|---5-----4-------|
|---5---5---5-----|-5---5-----5---5-|---5---5---5-----|-5---5-----5---5-|
|-3---3-------3---|-------3-----3---|-0---0-------0---|-------0-----0---|
|-----------------|-----------------|-----------------|-----------------|


    (Emadd9)
    Gtr III
    E E E E  E  E E E   +E  E E E  E  E E E
||--------------------|---------------------|
||o----------7--------|------------7--------|
||--------------------|---------------------|
||----5---5-----5-----|-----5---5-----5---5-|
||o-7---7---------7-7-|-(7)---7---------7---|
||--------------------|---------------------|
|
|   Gtr IV
|   Q   Q    Q    E E   +E  E E E  E  E E E
||--------------------|---------------------|
||o----------7--------|------------7--------|
||------9---(9)-------|-----9---9-(9)-9---9-|
||--9-------------9-9-|-(9)---9---------9---|
||o-------------------|---------------------|
||--------------------|---------------------|


  (Em)
  E E E E  E  E E E   +E  E E E  E  E E E
|-------------------|----------------------|
|----------0--------|------------0---------|
|-------------------|----------------------|
|---5---5-----5-----|-----5---5-----5---5--|
|-7---7---------7-7-|-(7)---7---------7----|
|-------------------|----------------------|
|
| Q   Q    E  E E E   +E  E E E  E  E E E
|-------------------|----------------------|
|---------12--------|-----------12---------|
|-----9---(9)-9-----|-----9---9-(9)-9---9--|
|-9-------------9-9-|-(9)---9---------9----|
|-------------------|----------------------|
|-------------------|----------------------|


  (Csus2)
  E  E  E E  E  E E  E    E E  E  E E  E  E  E
|----------------------|-----------------------|
|------------3-------5-|----3------------------|
|----------------------|------------4----------|
|----5----5-----5------|--5----5-------5-----5-|
|-3-----3---------3----|----------3-------3----|
|----------------------|-----------------------|
|
| E  E  E E  E  E E  E    E E  E  E E  E  E  E
|----------------------|-----------------------|
|------10------10------|-10------10------10----|
|---11------11------11-|------11------11----11-|
|-9-------9-------9----|----9-------9----------|
|----------------------|-----------------------|
|----------------------|-----------------------|


  (Am7)
  E  E  E E  E  E E  E    E  E  E E E  E E  E
|----------------------|-----------------------||
|--------------------3-|----------------------o||
|------------5---------|-----5------4----------||
|----5----5-----5------|--5-----5------5----5--||
|-0-----0---------0----|----------0------0----o||
|----------------------|-----------------------||
|
| E  E  E E  E  E E  E    E  E  E E E  E E  E
|----------------------|-----------------------||
|------10------10---12-|----10------8---------o||
|---11------11---------|-11----11-----11---11--||
|-9-------9-------9----|----------9------9-----||
|----------------------|----------------------o||
|----------------------|-----------------------||


 Speaking Part
  Em                            D6    D6add9
 6/4
  Gtrs III, IV
   Q.    Q   E  Q.    E  E  E    Q.    Q   E  Q.    E  E  E
|--------0---0--0-----0--0--0-|--------0---0--0-----0--0--0-|
|-------12--12-12----12-12-12-|-------12--12-12----12-12-12-|
|--------x---x--x-----x--x--x-|--------x---x--x-----x--x--x-|
|--9-----9---9--9-----9--9--9-|--9-----9---9--9-----9--9--9-|
|-10----10--10-10----10-10-10-|--9-----9---9--9-----9--9--9-|
|--0-----0---0--0-----0--0--0-|-10----10--10-10----10-10-10-|


  Em/B Emadd9/B          A5   F#m7b9/A
  Q.   Q  E Q.   E E E   Q.   Q  E Q.   E E E
|------0--0-0----0-0-0-|------0--0-0----0-0-0-|
|------7--7-7----7-7-7-|------7--7-7----7-7-7-|
|------0--0-0----0-0-0-|------0--0-0----0-0-0-|
|-5----5--5-5----5-5-5-|-7----7--7-7----7-7-7-|
|-7----7--7-7----7-7-7-|-7----7--7-7----7-7-7-|
|-7----7--7-7----7-7-7-|-5----5--5-5----5-5-5-|


  Em                              D6add9
   Q   E  Q   E  E  E  E  Q   E    Q   E  Q   E  E  E  E  Q   E
|--0---0--0---0--0--0--0--0---0-|--0---0--0---0--0--0--0--0---0-|
|-12--12-12--12-12-12-12-12--12-|-12--12-12--12-12-12-12-12--12-|
|--x---x--x---x--x--x--x--x---x-|--x---x--x---x--x--x--x--x---x-|
|--9---9--9---9--9--9--9--9---9-|--9---9--9---9--9--9--9--9---9-|
|-10--10-10--10-10-10-10-10--10-|--9---9--9---9--9--9--9--9---9-|
|--0---0--0---0--0--0--0--0---0-|-10--10-10--10-10-10-10-10--10-|


  Emadd9/B               F#m7b9/A
                        4/4
  Q  E Q  E E E E Q  E   W          +H     H
|-0--0-0--0-0-0-0-0--0-|-0--------|-(0)---------||
|-7--7-7--7-7-7-7-7--7-|-7--------|-(7)---------||
|-0--0-0--0-0-0-0-0--0-|-0--------|-(0)---------||
|-5--5-5--5-5-5-5-5--5-|-7--------|-(7)---------||
|-7--7-7--7-7-7-7-7--7-|-7--------|-(7)---------||
|-7--7-7--7-7-7-7-7--7-|-5--------|-(5)---------||


   "Place this picture in.."
    Punch & Kick Q=149
    (Amadd9)                 (G6add11)
    Gtr I
     PM------|                PM------|
     E  E  E  E  E E  E  E    E  E  E  E  E E  E  E
||-------------------------|------------------------|
||o-------------12---12----|-------------13---13----|
||-----------------9-----9-|----------------9-----9-|
||--10---------------------|--9---------------------|
||o----12-12-12------------|----10-10-10------------|
||-------------------------|------------------------|
|
|   Gtr II
|    PM------|                PM------|
|    E  E  E  E  E E  E  E    E  E  E  E  E E  E  E
||-------------------------|------------------------|
||o-------------12------12-|-------------13------13-|
||-----------------9--9----|----------------9--9----|
||--10-10--x-10------------|-10-10--x-10------------|
||o------------------------|------------------------|
||-------------------------|------------------------|


  (Esus2/F#)             (Dadd9)
   PM-----|               PM---|
   E  E E  E E  E  E E    E  E E  E  E  E  E  E
|----------------------|--------------------------||
|------------7-----7---|-------------7-----7-----o||
|---------------9----9-|----------9-----9-----9---||
|----------------------|--4-----------------------||
|--9--9-9--9-----------|-----5-5-----------------o||
|----------------------|--------------------------||
|
|  PM-----|               PM-----|
|  E  E E  E E  E  E E    E  E E  E  E  E  E  E
|----------------------|--------------------------||
|----------------------|-------------------------o||
|------------9-------9-|------------11-------11---||
|--------------12-12---|---------------14-14------||
|-12-12-x-12-----------|-12-12-x-12--------------o||
|----------------------|--------------------------||


  (Amadd9)                  (G6add11)
   PM------|
   E  E  E  E  E  E  E  E    E  E  E  E  E  E  E  E
|-------------------------|-------------------------|
|-------------12-12-12-12-|-12-12-12-12-13-13-13-13-|
|--------------9--9--9--9-|--9--9--9--9--9--9--9--9-|
|-10----------------------|-------------------------|
|----12-12-12-------------|-------------------------|
|-------------------------|-------------------------|
|
|  PM------|                 PM------|
|  E  E  E  E  E  E  E  E    E  E  E  E  E  E  E  E
|-------------------------|-------------------------|
|-------------12-12-12-12-|-------------13-13-13-13-|
|--------------9--9--9--9-|--------------9--9--9--9-|
|-10-10--x-10-------------|-10-10--x-10-------------|
|-------------------------|-------------------------|
|-------------------------|-------------------------|


  (Esus2/F#)               (Dadd9)
   PM-----|                 PM---|
   E  E E  E  E  E  E  E    E  E E  E  E  E  E  E
|------------------------|------------------------|
|-------------7--7--7--7-|----------7--7--7--7--7-|
|-------------9--9--9--9-|----------9--9--9--9--9-|
|------------------------|--4---------------------|
|--9--9-9--9-------------|-----5-5----------------|
|------------------------|------------------------|
|
|  PM-----|                 PM-----|
|  E  E E  E  E  E  E  E    E  E E  E  E  E  E  E
|------------------------|------------------------|
|------------------------|------------------------|
|-------------9--9--9--9-|------------11-11-11-11-|
|------------12-12-12-12-|------------14-14-14-14-|
|-12-12-x-12-------------|-12-12-x-12-------------|
|------------------------|------------------------|


  (Amadd9)                  (G6add11)
   PM------|                 PM------|
   E  E  E  E  E  E  E  E    E  E  E  E  E  E  E  E
|-------------------------|-------------------------|
|-------------12-12-12-12-|-------------13-13-13-13-|
|--------------9--9--9--9-|--------------9--9--9--9-|
|-10----------------------|--9----------------------|
|----12-12-12-------------|----10-10-10-------------|
|-------------------------|-------------------------|
|
|  PM------|                 PM------|
|  E  E  E  E  E  E  E  E    E  E  E  E  E  E  E  E
|-------------------------|-------------------------|
|-------------12-12-12-12-|-------------13-13-13-13-|
|--------------9--9--9--9-|--------------9--9--9--9-|
|-10-10--x-10-------------|-10-10--x-10-------------|
|-------------------------|-------------------------|
|-------------------------|-------------------------|


  (Esus2/F#)               (Dadd9)
   PM-----|                 PM---|
   E  E E  E  E  E  E  E    E  E E  E  E  E  E  E
|------------------------|------------------------|
|-------------7--7--7--7-|----------7--7--7--7--7-|
|-------------9--9--9--9-|----------9--9--9--9--9-|
|------------------------|--4---------------------|
|--9--9-9--9-------------|-----5-5----------------|
|------------------------|------------------------|
|
|  PM-----|                 PM-----|
|  E  E E  E  E  E  E  E    E  E E  E  E  E  E  E
|------------------------|------------------------|
|------------------------|------------------------|
|-------------9--9--9--9-|------------11-11-11-11-|
|------------12-12-12-12-|------------14-14-14-14-|
|-12-12-x-12-------------|-12-12-x-12-------------|
|------------------------|------------------------|


 Interlude
  (C5)  (G/B) E5                (C5)  (G/B) E5          Em7
  Gtrs III, IV
  E E E E E E Q    +W           E E E E E E Q    +H      H
|----------------|------------|----------------|--------------||
|----------------|------------|----------------|--------------||
|-----0-----0----|------------|-----0-----0----|--------^7----||
|---5-----5------|------------|---5-----5------|--------^5----||
|-3-----2-----2--|-(2)--------|-3-----2-----2--|-(2)----^7----||
|-------------0--|-(0)--------|-------------0--|-(0)----^0----||


 "Now that you're gone.."
  Keep dancin' Q=167
  N.C.
  Gtr I
  E E E E E E E E    E  E  E  E E E E      E
|-----------------|--------------------------|
|-----------------|--------------------------|
|-5-5-5-5-5-5-5-5-|-10-10-10-10-9-9-9------9-|
|-x-x-x-x-x-x-x-x-|--x--x--x--x-x-x-x------x-|
|-3-3-3-3-3-3-3-3-|--8--8--8--8-7-7-7------7-|
|-----------------|--------------------------|
|
| Gtr II
| E E E E E E E E    E  E  E  E E E S +S   E
|-----------------|--------------------------|
|-----------------|--------------------------|
|-5-5-5-5-5-5-5-5-|-10-10-10-10-9-9-9-(9)s10-|
|-x-x-x-x-x-x-x-x-|--x--x--x--x-x-x-x-(x)--x-|
|-3-3-3-3-3-3-3-3-|--8--8--8--8-7-7-7-(7)s=8-|
|-----------------|--------------------------|


  E5
  PM----------------------------------------|
  E S S E E E. E. E   S S S S S S S S E. E. E
|-------------------|-------------------------|
|-------------------|-------------------------|
|-------------------|-------------------------|
|-------------------|-------------------------|
|-2-2-2-2-2-2--2--2-|-2-2-2-2-2-2-2-2-2--2--2-|
|-0-0-0-0-0-0--0--0-|-0-0-0-0-0-0-0-0-0--0--0-|
|
| PM----------------------------------------|
| E S S E E E. E. E   S S S S S S S S E. E. E
|-------------------|-------------------------|
|-------------------|-------------------------|
|-------------------|-------------------------|
|-------------------|-------------------------|
|-2-2-2-2-2-2--2--2-|-2-2-2-2-2-2-2-2-2--2--2-|
|-0-0-0-0-0-0--0--0-|-0-0-0-0-0-0-0-0-0--0--0-|


  N.C.
  E E E E E E E E    E  E  E  E  S  +S   E  E      E
|-----------------|----------------------------------|
|-----------------|----------------------------------|
|-5-5-5-5-5-5-5-5-|-10-10-10-10-10-(10)s12-12-----12-|
|-x-x-x-x-x-x-x-x-|--x--x--x--x--x--(x)--x--x------x-|
|-3-3-3-3-3-3-3-3-|--8--8--8--8--8--(8)s10-10-----10-|
|-----------------|----------------------------------|
|
| E E E E E E E E    E  E  E  E  E       E  S +S   E
|-----------------|----------------------------------|
|-----------------|----------------------------------|
|-5-5-5-5-5-5-5-5-|-10-10-10-10--9-------9--9-(9)s10-|
|-x-x-x-x-x-x-x-x-|--x--x--x--x--x-------x--x-(x)--x-|
|-3-3-3-3-3-3-3-3-|--8--8--8--8--7-------7--7-(7)s=8-|
|-----------------|----------------------------------|


  E5
  PM----------------------------------------|
  E S S E E E. E. E   S S S S S S S S E. E. E
|-------------------|--------------------------|
|-------------------|--------------------------|
|-------------------|--------------------------|
|-------------------|--------------------------|
|-2-2-2-2-2-2--2--2-|-2-2-2-2-2-2-2-2-2--2--2--|
|-0-0-0-0-0-0--0--0-|-0-0-0-0-0-0-0-0-0--0--0--|
|
| PM----------------------------------------|
| E S S E E E. E. E   S S S S S S S S E. E. E
|-------------------|--------------------------|
|-------------------|--------------------------|
|-------------------|--------------------------|
|-------------------|--------------------------|
|-2-2-2-2-2-2--2--2-|-2-2-2-2-2-2-2-2-2--2--2--|
|-0-0-0-0-0-0--0--0-|-0-0-0-0-0-0-0-0-0--0--0--|


  N.C.
  E E E E E E E E    E  E  E  E  S  +S   E  E      E
|-----------------|----------------------------------|
|-----------------|----------------------------------|
|-5-5-5-5-5-5-5-5-|-12-12-12-12-12-(12)s10-10-----10-|
|-x-x-x-x-x-x-x-x-|--x--x--x--x--x--(x)--x--x------x-|
|-3-3-3-3-3-3-3-3-|-10-10-10-10-10-(10)s=8--8------8-|
|-----------------|----------------------------------|
|
| E E E E E E E E    E  E  E  E  E       E  S +S   E
|-----------------|----------------------------------|
|-----------------|----------------------------------|
|-5-5-5-5-5-5-5-5-|-10-10-10-10--9-------9--9-(9)s10-|
|-x-x-x-x-x-x-x-x-|--x--x--x--x--x-------x--x-(x)--x-|
|-3-3-3-3-3-3-3-3-|--8--8--8--8--7-------7--7-(7)s=8-|
|-----------------|----------------------------------|


  E5
  PM----------------------------------------|
  E S S E E E. E. E   S S S S S S S S E. E. E
|-------------------|--------------------------|
|-------------------|--------------------------|
|-------------------|--------------------------|
|-------------------|--------------------------|
|-2-2-2-2-2-2--2--2-|-2-2-2-2-2-2-2-2-2--2--2--|
|-0-0-0-0-0-0--0--0-|-0-0-0-0-0-0-0-0-0--0--0--|
|
| PM----------------------------------------|
| E S S E E E. E. E   S S S S S S S S E. E. E
|-------------------|--------------------------|
|-------------------|--------------------------|
|-------------------|--------------------------|
|-------------------|--------------------------|
|-2-2-2-2-2-2--2--2-|-2-2-2-2-2-2-2-2-2--2--2--|
|-0-0-0-0-0-0--0--0-|-0-0-0-0-0-0-0-0-0--0--0--|


  N.C.
  E E E E E E E E    S +S   E  E  E E E E      E
|-----------------|------------------------------|
|-----------------|------------------------------|
|-5-5-5-5-5-5-5-5-|--5-(5)s=7--7--7-7-7-7------7-|
|-x-x-x-x-x-x-x-x-|--x-(x)--x--x--x-x-x-x------x-|
|-3-3-3-3-3-3-3-3-|--3-(3)s=5--5--5-5-5-5------5-|
|-----------------|------------------------------|
|
| E E E E E E E E    E      E  E  E E E S +S   E
|-----------------|------------------------------|
|-----------------|------------------------------|
|-5-5-5-5-5-5-5-5-|-10-----10-10-10-9-9-9-(9)s10-|
|-x-x-x-x-x-x-x-x-|--x------x--x--x-x-x-x-(x)--x-|
|-3-3-3-3-3-3-3-3-|--8------8--8--8-7-7-7-(7)s=8-|
|-----------------|------------------------------|


   Q.    Q.    Q     +E   Q.   Q  S +S  E
|-----------------|------------------------||
|-13----12--------|------------------------||
|--x-----x----12--|-(12)-11----7--7-(7)s9--||
|-10-----9-----x--|--(x)--x----x--x-(x)-x--||
|-------------10--|-(10)--9----5--5-(5)s7--||
|-----------------|------------------------||
|
|  Q.    Q.    Q     +E   Q.   Q  S +S  E
|-----------------|------------------------||
|-13----12--------|------------------------||
|--x-----x----12--|-(12)-11----7--7-(7)s9--||
|-10-----9-----x--|--(x)--x----x--x-(x)-x--||
|-------------10--|-(10)--9----5--5-(5)s7--||
|-----------------|------------------------||


 "I feel I've done my part.."
  It's number 12 time Q=199
  E5
  Gtrs I, II
  PM-------------------------------
  S S S S S S S S S S S S S S S S
|---------------------------------|
|---------------------------------|
|---------------------------------|
|---------------------------------|
|-2-2-2-2-2-2-2-2-2-2-2-2-2-2-2-2-|
|-0-0-0-0-0-0-0-0-0-0-0-0-0-0-0-0-|


                                        N.CE5  N.CE5  N.CE5  N.C.
                                   12/8
 -------------------------------------|    PM|    PM|    PM|
  S S S S S S S S S S S S S S S S   S S Q  S S Q  S S Q  S S Q
|---------------------------------|------------1-------------1----|
|---------------------------------|-----3------0------3------0----|
|---------------------------------|-----1-------------1-----------|
|---------------------------------|-------------------------------|
|-2-2-2-2-2-2-2-2-2-2-2-2-2-2-2-2-|-2-2----2-2----2-2----2-2------|
|-0-0-0-0-0-0-0-0-0-0-0-0-0-0-0-0-|-0-0----0-0----0-0----0-0------|


  E5
 4/4
  PM--------------------------------------------------------------|
  S S S S S S S S S S S S S S S S   S S S S S S S S S S S S S S S S
|---------------------------------|----------------------------------||
|---------------------------------|----------------------------------||
|---------------------------------|----------------------------------||
|---------------------------------|----------------------------------||
|-2-2-2-2-2-2-2-2-2-2-2-2-2-2-2-2-|-2-2-2-2-2-2-2-2-2-2-2-2-2-2-2-2--||
|-0-0-0-0-0-0-0-0-0-0-0-0-0-0-0-0-|-0-0-0-0-0-0-0-0-0-0-0-0-0-0-0-0--||


 "I'll never be hurt again!"
  E5                                          C
 6/4                       5/4
  Gtr I
         PM----|            PM------|       PM
  E Q.   S S S S E H    E   S S S S E Q.    E Q.
|-------------------------|--------------------------|
|-------------------------|--------------------------|
|-------------------------|-------------------5------|
|-------------------------|-------------------2------|
|-2------2-2-2-2-2--------|-2-2-2-2-2-------2-3------|
|-0------0-0-0-0-0--------|-0-0-0-0-0-------0--------|
|
| Gtr II
|        PM------|          PM------|       PM
| E Q.   S S S S E H    E   S S S S E Q   E E E  E E
|-------------------------|-------------------7--7-7-|
|-------------------------|---------------8---6--6-6-|
|-------------------------|---------------6----------|
|-------------------------|--------------------------|
|-------------------------|--------------------------|
|-0------0-0-0-0-0--------|-0-0-0-0-0-------0--------|


  E5                                             C
 6/4                       5/4
  PM     PM------|          PM------|          PM
  E Q.   S S S S E H    E   S S S S E Q.       E Q.
|-------------------------|------------------------------|
|-------------------------|------------------------------|
|-------------------------|----------------------5-------|
|-------------------------|----------------------2-------|
|-2------2-2-2-2-2--------|-2-2-2-2-2----------2-3-------|
|-0------0-0-0-0-0--------|-0-0-0-0-0----------0---------|
|
| PM     PM------|          PM------|       PM
| E Q.   S S S S E H    E   S S S S E Q   S E.   E  E E
|-------------------------|----------------------7--7-7--|
|-------------------------|---------------8------6--6-6--|
|-------------------------|---------------6--------------|
|-------------------------|------------------------------|
|-------------------------|------------------------------|
|-0------0-0-0-0-0--------|-0-0-0-0-0-------0------------|


  E5                                          C
 6/4                       5/4
         PM----|            PM------|       PM
  E Q.   S S S S E H    E   S S S S E Q.    E Q.
|-------------------------|-------------------------|
|-------------------------|-------------------------|
|-------------------------|-------------------5-----|
|-------------------------|-------------------2-----|
|-2------2-2-2-2-2--------|-2-2-2-2-2-------2-3-----|
|-0------0-0-0-0-0--------|-0-0-0-0-0-------0-------|
|
|        PM----|            PM------|       PM
| E Q.   S S S S E H    E   S S S S E Q   E E Q   E
|-------------------------|-------------------------|
|-------------------------|-------------------1---1-|
|-------------------------|---------------0---0---0-|
|-------------------------|-------------------------|
|-------------------------|-------------------------|
|-0------0-0-0-0-0--------|-0-0-0-0-0-------0-------|


  E5                                             C
 6/4                       5/4
  PM     PM------|          PM------|          PM
  E Q.   S S S S E H    E   S S S S E Q.       E Q.
|-------------------------|------------------------------|
|-------------------------|------------------------------|
|-------------------------|----------------------5-------|
|-------------------------|----------------------2-------|
|-2------2-2-2-2-2--------|-2-2-2-2-2----------2-3-------|
|-0------0-0-0-0-0--------|-0-0-0-0-0----------0---------|
|
|        PM----|            PM------|       PM
| E Q.   S S S S E H    E   S S S S E Q   S E.   E  E E
|-------------------------|------------------------------|
|-------------------------|----------------------1--1-1--|
|-------------------------|---------------0------0--0-0--|
|-------------------------|------------------------------|
|-------------------------|------------------------------|
|-0------0-0-0-0-0--------|-0-0-0-0-0-------0------------|


  E5
 4/4
  PM
  E H..         W
|-------------|------||
|-------------|------||
|-------------|------||
|-------------|------||
|-2-----------|------||
|-0-----------|------||
|
| PM
| E H..         W
|-------------|------||
|-------------|------||
|-------------|------||
|-------------|------||
|-2-----------|------||
|-0-----------|------||


  Get stabby Q=236
  N.C.                                   C5
 6/4
  Gtr I
      PM----|      PM----|       PM----------------|
  Q   E E E E  Q   E E E E   Q   E E E E  Q    Q    Q
|--------------------------|----------------------------|
|--------------------------|----------------------------|
|-9-----------10-----------|-9--------------------------|
|-x------------x-----------|-x--------------------------|
|-7---0-0-0-0--8---0-0-0-0-|-7---0-0-0-0-10---10---10---|
|--------------------------|--------------8----8----8---|
|
| Gtr II
|   PM|   PM|    PM|   PM|     PM|   PM|
| E E E E E E  E E E E E E   E E E E E E  E E  E E  E E
|--------------------------|----------------------------|
|--------------------------|----------------------------|
|--------------------------|----------------------------|
|-2-----2------3-----3-----|-2-----2------3p2----3p=2---|
|---0-0---0-0----0-0---0-0-|---0-0---0-0-------3------3-|
|--------------------------|----------------------------|


  N.C.        F/E                        C5
      PM----|      PM----|       PM----------------|
  Q   E E E E  Q   E E E E   Q   E E E E  Q    Q    Q
|--------------------------|------------------------------|
|--------------------------|------------------------------|
|-9-----------10-----------|-9----------------------------|
|-x------------7-----------|-x----------------------------|
|-7---0-0-0-0--7---0-0-0-0-|-7---0-0-0-0-10---10---10-----|
|--------------------------|--------------8----8----8-----|
|
|   PM|   PM|    PM|   PM|     PM|   PM|
| E E E E E E  E E E E E E   E E E E E E  E E  E E  E E
|--------------------------|------------------------------|
|--------------------------|------------------------------|
|--------------------------|------------------------------|
|-2-----2------3-----3-----|-2-----2------3p2----3p=2-----|
|---0-0---0-0----0-0---0-0-|---0-0---0-0-------3------3---|
|--------------------------|------------------------------|


  (Amadd9/F)
  Gtrs III, IV
  E. E. E. E. E. E. E. E.   +W.              E. E. E. E. E. E. E. E.   +W.
|-------------5-----------|----------------|-------------5-----------|--------|
|----------0--------0-----|----------------|----------0--------0-----|--------|
|----5-----------5-----5--|-(5)------------|----5-----------5-----5--|-(5)----|
|-3-----3-----------------|----------------|-3-----3-----------------|--------|
|-------------------------|----------------|-------------------------|--------|
|-------------------------|----------------|-------------------------|--------|


  N.C.        F/E            N.C.        C5
  Gtr I
      PM----|      PM----|       PM----------------|
  Q   E E E E  Q   E E E E   Q   E E E E  Q    Q    Q
|--------------------------|----------------------------|
|--------------------------|----------------------------|
|-9-----------10-----------|-9--------------------------|
|-x------------7-----------|-x--------------------------|
|-7---0-0-0-0--7---0-0-0-0-|-7---0-0-0-0-10---10---10---|
|--------------------------|--------------8----8----8---|
|
| Gtr II
|   PM|   PM|    PM|   PM|     PM|   PM|
| E E E E E E  E E E E E E   E E E E E E  E E  E E  E E
|--------------------------|----------------------------|
|--------------------------|----------------------------|
|--------------------------|----------------------------|
|-2-----2------3-----3-----|-2-----2------3p2----3p=2---|
|---0-0---0-0----0-0---0-0-|---0-0---0-0-------3------3-|
|--------------------------|----------------------------|


  N.C.        F/E            N.C.        C5
      PM----|      PM----|       PM----------------|
  Q   E E E E  Q   E E E E   Q   E E E E  Q    Q    Q
|--------------------------|-------------------------------|
|--------------------------|-------------------------------|
|-9-----------10-----------|-9-----------------------------|
|-x------------7-----------|-x-----------------------------|
|-7---0-0-0-0--7---0-0-0-0-|-7---0-0-0-0-10---10---10------|
|--------------------------|--------------8----8----8------|
|
|   PM|   PM|    PM|   PM|     PM|   PM|
| E E E E E E  E E E E E E   E E E E E E  E E  E E  E E
|--------------------------|-------------------------------|
|--------------------------|-------------------------------|
|--------------------------|-------------------------------|
|-2-----2------3-----3-----|-2-----2------3p2----3p=2------|
|---0-0---0-0----0-0---0-0-|---0-0---0-0-------3------3----|
|--------------------------|-------------------------------|


  Laaa la la la la H.=68
  C5      G5        Dsus2
                   3/2
                         >
  H.      H.        H    H    H       H      H     H
|-----------------|-0----0----0----|--0------0-----0-------||
|-----------------|-5----5----5----|--5------5-----5-------||
|-5---------------|-7----7----7----|--7------7-----7-------||
|-5-------5-------|-7----7----7----|--7------7-----7-------||
|-3-------5-------|-5----5----5----|--5------5-----5-------||
|---------3-------|----------------|-----------------------||
|
| Gtr V
|                             <
| W                 W         H       Q   Q  Q  Q  Q  +Q
|-----------------|----------------|-----------------------||
|-----------------|----------------|--6------8-------------||
|-----------------|-----------7----|------7-----7--5--(5)--||
|-----------------|----------------|-----------------------||
|-----------------|-----------6----|-(6)-------------------||
|-----------------|-----------4----|-(4)-------------------||
                    W         H      +W.


 Outro
  N.C.
 2/2
  Gtr V
  H    Q  Q     Q   Q  Q  Q     H    Q  Q      Q   H    Q
|------------|---------------|-------------|---------------|
|------6-----|--8---6-----5--|-------6-----|---8---6----5--|
|-7-------7--|---------7-----|--7-------7--|---------------|
|------------|---------------|-------------|---------------|
|-8----------|-(8)-----------|-10----------|-(10)----------|
|-6----------|-(6)-----------|--8----------|--(8)----------|
  W            +W               W             +W


  N.C.
   +Q   Q  H        W           H    Q  Q     Q   Q  Q  Q
|---------------|-------------|------------|----------------|
|--(5)--6--8----|---6---------|-8----6-----|--6---8--6------|
|---------------|-------------|---------7--|------------7---|
|---------------|-------------|------------|----------------|
|-(10)----------|-(10)--------|-6----------|-(6)------------|
|--(8)----------|--(8)--------|-4----------|-(4)------------|
   +W              +W           W            +W


  N.C.
  +H     Q  Q     Q   Q  Q  Q     H    Q  Q      Q   H    Q
|--------------|---------------|-------------|----------------|
|--------6-----|--8---6--------|-------6-----|---8---6----8---|
|-(7)-------7--|---------7--9--|--7-------7--|----------------|
|--------------|---------------|-------------|----------------|
|--8-----------|-(8)-----------|-10----------|-(10)-----------|
|--6-----------|-(6)-----------|--8----------|--(8)-----------|
   W             +W               W             +W


  N.C.
   +H     Q  Q      Q   H.        H    Q  Q     Q   Q  Q  Q
|---------------|---8---6-------|------------|----------------|
|--(8)----8--6--|---------------|-8----6-----|--6------8------|
|---------------|---------------|---------7--|------7-----7---|
|---------------|---------------|------------|----------------|
|-(10)----------|-(10)----------|-6----------|-(6)------------|
|--(8)----------|--(8)----------|-4----------|-(4)------------|
   +W              +W             W            +W


  N.C.
  +H     Q  Q     Q   H.         H    H        H.      Q
|--------------|--------------|------------|---------------|
|--------6-----|--6---8-------|-------5----|---6-------8---|
|-(7)-------7--|--------------|--7---------|---------------|
|--------------|--------------|------------|---------------|
|--8-----------|-(8)----------|-10---------|-(10)----------|
|--6-----------|-(6)----------|--8---------|--(8)----------|
   W             +W              W            +W


  N.C.
   +H     Q  Q      Q   H.        H    Q  Q     Q   H.
|---------------|---------------|------------|------------|
|--(8)----6-----|---6---8-------|-8----6-----|--6---8-----|
|------------7--|---------------|---------7--|------------|
|---------------|---------------|------------|------------|
|-(10)----------|-(10)----------|-6----------|-(6)--------|
|--(8)----------|--(8)----------|-4----------|-(4)--------|
   +W              +W             W            +W


  N.C.
  H    Q  Q     Q   Q  Q  Q     H    Q  Q      Q   H    Q
|------------|---------------|-------------|----------------|
|------6-----|--8---6-----6--|-------6-----|---8---6--------|
|-7-------7--|---------7-----|--7-------7--|------------7---|
|------------|---------------|-------------|----------------|
|-8----------|-(8)-----------|-10----------|-(10)-----------|
|-6----------|-(6)-----------|--8----------|--(8)-----------|
  W            +W               W             +W


  N.C.
   +Q   Q  Q  Q      Q   H.        H    Q  Q     Q   Q  Q  Q
|----------------|---8---6-------|------------|----------------|
|----------6-----|---------------|-8----6-----|--6---8--6------|
|--(7)--7-----7--|---------------|---------7--|------------7---|
|----------------|---------------|------------|----------------|
|-(10)-----------|-(10)----------|-6----------|-(6)------------|
|--(8)-----------|--(8)----------|-4----------|-(4)------------|
   +W               +W             W            +W


  N.C.
  +H     Q  Q     Q   Q  Q  Q    H    Q  Q     Q   Q  Q  Q
|--------------|---------------|------------|----------------|
|--------6-----|--8---6--------|------5--6--|--8---6--5------|
|-(7)-------7--|---------7--9--|-7----------|------------7---|
|--------------|---------------|------------|----------------|
|--8-----------|-(8)-----------|-3----------|-(3)--------5---|
|--6-----------|-(6)-----------|-1----------|-(1)--------3---|
   W             +W              W            +H.        Q


  +W            H     H
|------------|-------------*|
|------------|--------6----*|
|-(7)--------|--7----------*|
|------------|-------------*|
|-(5)--------|-(5)---------*|
|-(3)--------|-(3)---------*|
  +W           +W


Duration Legend
---------------
W - whole; H - half; Q - quarter; E - 8th; S - 16th; T - 32nd; X - 64th; a - acciaccatura
+ - note tied to previous; . - note dotted; .. - note double dotted
Uncapitalized letters represent notes that are staccato (1/2 duration)
Irregular groupings are notated above the duration line
Duration letters will always appear directly above the note/fret number it represents the
duration for.  Duration letters with no fret number below them represent rests.  Multi-
bar rests are notated in the form Wxn, where n is the number of bars to rest for.  Low
melody durations appear below the staff

Tablature Legend
----------------
 h   - hammer-on
 p   - pull-off
 b   - bend
 pb  - pre-bend
 r   - bend release (if no number after the r, then release immediately)
 /\  - slide into or out of (from/to "nowhere")
 s   - legato slide
 S   - shift slide
  - natural harmonic
[n]  - artificial harmonic
n(n) - tapped harmonic
 ~   - vibrato
 tr  - trill
 T   - tap
 TP  - trem. picking
 PM  - palm muting
\n/  - tremolo bar dip; n = amount to dip
 \n  - tremolo bar down
 n/  - tremolo bar up
/n\  - tremolo bar inverted dip
 =   - hold bend; also acts as connecting device for hammers/pulls
 <>  - volume swell (louder/softer)
 x   - on rhythm slash represents muted slash
 o   - on rhythm slash represents single note slash

Misc Legend
-----------
 |  - bar
||  - double bar
||o - repeat start
o|| - repeat end
*|  - double bar (ending)
 :  - bar (freetime)
 $  - Segno
 &  - Coda
Tempo markers -  = BPM(8/16=s8/s16), where s8 = swing 8ths, s16 = swing 16ths


***************************************************************************************
* Generated using Power Tab Editor by Brad Larsen - http://powertab.guitarnetwork.org *
***************************************************************************************
Tap to rate this tab
# A B C D E F G H I J K L M N O P Q R S T U V W X Y Z