Song name
# A B C D E F G H I J K L M N O P Q R S T U V W X Y Z

The Number 12 Looks Like You - My Sharona The Knack tab

Oh My Geez. I can't even get the whole thing.
Tuning: Drop D (DADGBe)

|12p10p--------|-----------------------------------------------|
|------13p12p--|-----------------------------------------------|
|------------14|-----------------------------------------------|
|--------------|10-99-1212-99-10-9-7-9/12b13r12----------------|
|--------------|-----------------------------------------------|
|--------------|-----------------------------------------------|

|-----------------------------------------------------12h15p12h15p12h15b17-|
|--------------------------------------------------------------------------|
|------------------------12h14p12h14p12h14p12h14b16r14---------------------|
|----------------12-14-15--------------------------------------------------|
|--------12-14-15----------------------------------------------------------|
|10-12-14------------------------------------------------------------------|

Thats....all i got. Help us people out? Thanks
Add my band! myspace.com/sththeband
Tap to rate this tab
# A B C D E F G H I J K L M N O P Q R S T U V W X Y Z