Song name
# A B C D E F G H I J K L M N O P Q R S T U V W X Y Z

The Number 12 Looks Like You - Devils Dick Disaster tab

-----------------------------------------------------------------------------
	 The Devils Dick Disaster by The Number Twelve Looks Like You
                               Track 1 From
                           Nuclear. Sad. Nuclear
----------------------------------------------------------------------------
Tabbed by: 0_0 Colin Rolfe
Email: el_muchacho41@yahoo.com

I realized that there were only 2 Number Twelve Tabs so i figured i'd take
matters into my own hands.
Any Complaints/ Questions should be directed to the email address above.

Tuning: Standard

INTRO:
They play this chord a for quite a while before switching to the next one. Which they 
play for quite A while. I'm guessing if you know the song, you'll know when to switch.
e|-10----------0--------------------------------------------------------------|
B|-12----------0--------------------------------------------------------------|
G|-11----------0--------------------------------------------------------------|
D|-9-----------2--------------------------------------------------------------|
A|----------------------------------------------------------------------------|
E|----------------------------------------------------------------------------|

VERSE:
Once again, i'm going to trust that you know how many times to play this before 
to the next part of the verse.
e|--------------------------------------------------------------------------|
B|--------------------------------------------------------------------------|
G|-4-4-4-4-----4-4-4-4-----4-4-4-4-----4-4-4-4------------------------------|
D|-4-4-4-4-----4-4-4-4-----4-4-4-4-----4-4-4-4-----2-2-2-2-----2-2-2-2------|
A|-2-2-2-2-----2-2-2-2-----2-2-2-2-----2-2-2-2-----2-2-2-2-----2-2-2-2------|
E|-------------------------------------------------0-0-0-0-----0-0-0-0------|

e|--------------------------------------------------------------------------|
B|--------------------------------------------------------------------------|
G|--------------------------------------------------------------------------|
D|-2-2-2-2------2-2-2--2----------------------------------------------------|
A|-2-2-2-2------2-2-2--2----------------------------------------------------|
E|-0-0-0-0------0-0-0--0----------------------------------------------------|

He plays this part 3 Times.
e|--------------------------------------------------------------------------|
B|-------0---------0-----0----------0---------------------------------------|
G|--------------------------------------------------------------------------|
D|---4---------4------4--------4--------------------------------------------|
A|--------------------------------------------------------------------------|
E|2---------3------2--------3-----------------------------------------------|

CHORUS:
He Plays this part 4 Times.
e|--------------------------------------------------------------------------|
B|--------------------------------------------------------------------------|
G|-7-7-7-7-7-7-6-6-6-6-6-6-5-5-5-5-5-5--------------------------------------|
D|-7-7-7-7-7-7-6-6-6-6-6-6-5-5-5-5-5-5--------------------------------------|
A|-5-5-5-5-5-5-4-4-4-4-4-4-3-3-3-3-3-3-------0------------------------------|
E|-------------------------------------2-0-2--------------------------------|

BRIDGE:
This is right after the part where it's only bass drum. It splits into Two Parts. He 
Plays these parts 4 times.
GUITAR ONE:
e|-5-3-5-3-7-5-3-5-3-7-5-3-5-3-7----8-7-------------------------------------|
B|--------------------------------------------------------------------------|
G|--------------------------------------------------------------------------|
D|--------------------------------------------------------------------------|
A|--------------------------------------------------------------------------|
E|--------------------------------------------------------------------------|

GUITAR TWO:
e|--------------------------------------------------------------------------|
B|--------------------------------------------------------------------------|
G|-6-4-6-4-7--6-4-6-4-7--6-4-6-4-7----8-7-----------------------------------|
D|--------------------------------------------------------------------------|
A|--------------------------------------------------------------------------|
E|--------------------------------------------------------------------------|

Here It Goes Back Into One Part: (Once again played 4 times)
e|----------------3---------5-----------------------------------------------|
B|---5-7-5------------------------------------------------------------------|
G|-7-------7---4----4---6------6--------------------------------------------|
D|--------------------------------------------------------------------------|
A|--------------------------------------------------------------------------|
E|--------------------------------------------------------------------------|

Then comes this part:
e|--------------------------------------------------------------------------|
B|--------------------------------------------------------------------------|
G|-2-5-2--5-4-2-------------------------------------------------------------|
D|------------------3-------------------------------------------------------|
A|---------------5----------------------------------------------------------|
E|--------------------------------------------------------------------------|

More Chords Ensue:
(He Plays Each More Than Once, I'm just too lazy to write it that many times)
e|-5---------------5--------------------------------------------------------|
B|-5---------------5--------------------------------------------------------|
G|-5---------------5--------------------------------------------------------|
D|-----------------7--------------------------------------------------------|
A|-7------------------------------------------------------------------------|
E|--------------------------------------------------------------------------|

Then He Repeats the chorus.

THEN:
These notes are all muted and the phrase is repeated many times.
e|--------------------------------------------------------------------------|
B|--------------------------------------------------------------------------|
G|-4-5---4-5----4-5----4-5-7------------------------------------------------|
D|-----7-----7------7-------------------------------------------------------|
A|--------------------------------------------------------------------------|
E|--------------------------------------------------------------------------|

The it gets loud again:
e|------------0-------------0-------------5-------------5-------------------|
B|------------3-------------3-------------7-------------7-------------------|
G|------------4-------------4-------------7-------------7-------------------|
D|-4-4-4-4-4--4-4-4-4-4-4-4-4-4-4-4-4-4-4-7-4-4-4-4-4-4-7-------------------|
A|--------------------------------------------------------------------------|
E|--------------------------------------------------------------------------|

END:

e|-------------------------8------------------------------------------------|
B|-8-10-8-8-10-11-----8-11---11-10-11-8-------------------------------------|
G|--------------------------------------------------------------------------|
D|--------------------------------------------------------------------------|
A|--------------------------------------------------------------------------|
E|--------------------------------------------------------------------------|
=============================================================================
Tap to rate this tab
# A B C D E F G H I J K L M N O P Q R S T U V W X Y Z