Song name
# A B C D E F G H I J K L M N O P Q R S T U V W X Y Z

The Number 12 Looks Like You - Like A Cat tab

Help us improve GuitareTab! Take a short survey!
The Number Twelve Looks Like You
Like A Cat

Tuning: Standard (E A D G B E)

Key:
x = Mute String
/ = Slide Upwards
 = Slide Downwards
^ = Pull Off
~ = Let Note Ring

Note:
This song was not originally tabbed out by me. A thread/topic was made on Taborama Forum
a member flatfoot_beans posted this tab on it. I thought I would copy and paste it and
save it my computer. So, I'm afraid this not mine. I cannot speak to the person who made 
either as Taborama Forum has went off. So sorry if this  incorrect or has been copied
it's not mine. Once I pasted it onto here I edited the format and layout of the tab to 
it a little easier to read and understand.

THE NUMBER TWELVE LOOKS LIKE YOU FUCKING ROCK!!!!
Enjoy!


Intro: (0:00)
E]------------------------------------------------|
B]------------------------------------------------|
G]--8--x-x-x-x--5----8--x-x-x-x--5---8/108--5-----|
D]--x--x-x-x-x--x----x--x-x-x-x--x---x/-xx--x-----| x2
A]--6--x-x-x-x--3----6--x-x-x-x--3---6/-86--3-----|
E]------------------------------------------------|


Verse 1: (0:05)
E]------------------------------------------------|
B]------------------------------------------------|
G]--8--x-x-x-x--5----8--x-x-x-x--5---8/108--5-----|
D]--x--x-x-x-x--x----x--x-x-x-x--x---x/-xx--x-----|
A]--6--x-x-x-x--3----6--x-x-x-x--3---6/-86--3-----|
E]------------------------------------------------|

E]-----------------------------------------------------|
B]-----------------------------------------------------|
G]--8--x-x-x-x--5----8--x-x-x-x--5----8/108--11-12-----|
D]--x--x-x-x-x--x----x--x-x-x-x--x----x/-xx---x--x-----|
A]--6--x-x-x-x--3----6--x-x-x-x--3----6/-86---9-10-----|
E]-----------------------------------------------------|


Pre-Chorus: (0:12)
E]------------------------------------------------|
B]------------------------------------------------|
G]--8--x-x-x-x--5----8--x-x-x-x--5---8/108--5-----|
D]--x--x-x-x-x--x----x--x-x-x-x--x---x/-xx--x-----| x2
A]--6--x-x-x-x--3----6--x-x-x-x--3---6/-86--3-----|
E]------------------------------------------------|


Chorus: (0:16)
E]-------------------------------------------------------|
B]--1p0----------1p0----------1p0-----------1p0----------|
G]------2p0----------2p0----------2p0-----------2p0------|
D]----------3p0----------3p0-----------3p0----------3p0--|
A]-------------------------------------------------------|
E]-------------------------------------------------------|

E]-----------------------------------------|
B]-----------------------------------------|
G]-----------------------------------------|
D]--10-10-10-10-10-10---12-12-12-12-12-12--|
A]---8--8--8--8--8--8----8--8--8--8--8--8--|
E]-----------------------------------------|

E]-------------------------------------------------------|
B]--1p0----------1p0----------1p0-----------1p0----------|
G]------2p0----------2p0----------2p0-----------2p0------|
D]----------3p0----------3p0-----------3p0----------3p0--|
A]-------------------------------------------------------|
E]-------------------------------------------------------|

E]-----------------------------------------|
B]-----------------------------------------|
G]-----------------------------------------|
D]--10-10-10-10-10-10---12-12-12-12-12-12--|
A]---8--8--8--8--8--8----8--8--8--8--8--8--|
E]-----------------------------------------|

E]-------------------------------------------------------|
B]--1p0----------1p0----------1p0-----------1p0----------|
G]------2p0----------2p0----------2p0-----------2p0------|
D]----------3p0----------3p0-----------3p0----------3p0--|
A]-------------------------------------------------------|
E]-------------------------------------------------------|

E]-----------------------------------------|
B]-----------------------------------------|
G]-----------------------------------------|
D]--10-10-10-10-10-10---12-12-12-12-12-12--|
A]---8--8--8--8--8--8----8--8--8--8--8--8--|
E]-----------------------------------------|


Pre-Verse: (0:44)
E]-----------------------------------|
B]-----------------------------------|
G]--8---x-x-x-x---5----8/108---5-----|
D]--x---x-x-x-x---x----x/-xx---x-----|
A]--6---x-x-x-x---3----6/-86---3-----|
E]-----------------------------------|


Verse 2: (0:46)
E]-----------------------------------------------------------|
B]--11--11--11--11--11--11--11--11--11--x-x-x-x--11--11--11--|
G]--12--12--12--12--12--12--12--12--12--x-x-x-x--12--12--12--|
D]---x---x---x---x---x---x---x---x---x--x-x-x-x---x---x---x--|
A]--10--10--10--10--10--10--10--10--10--x-x-x-x--10--10--10--|
E]-----------------------------------------------------------|

E]-----------------------------------|
B]--x-x-x-x---8---8---8---8---8---8--|
G]--x-x-x-x--10--10--10--10--10--10--|
D]--x-x-x-x---x---x---x---x---x---x--|
A]--x-x-x-x---8---8---8---8---8---8--|
E]-----------------------------------|


Bridge: (0:55)
E]-----------------------------------|
B]-----------------------------------|
G]--14-14-14-14-14---14-14-14-14-14--|
D]---x--x--x--x--x----x--x--x--x--x--| x2
A]--12-12-12-12-12---12-12-12-12-12--|
E]-----------------------------------|

E]-----------------------------------------------------|
B]-----------------------------------------------------|
G]-----------------------------------------------------|
D]--12-12--7-7--/12-12--7-7--/12-12--7-7--/12-12--7-7--|
A]---x--x--x-x----x--x--x-x----x--x--x-x----x--x--x-x--|
E]--10-10--5-5--/10-10--5-5--/10-10--5-5--/10-10--5-5--|

E]-----------------------------------|
B]-----------------------------------|
G]--14-14-14-14-14---14-14-14-14-14--|
D]---x--x--x--x--x----x--x--x--x--x--| x2
A]--12-12-12-12-12---12-12-12-12-12--|
E]-----------------------------------|

E]-----------------------------------------------------|
B]-----------------------------------------------------|
G]-----------------------------------------------------|
D]--12-12--7-7--/12-12--7-7--/12-12--7-7--/12-12--7-7--|
A]---x--x--x-x----x--x--x-x----x--x--x-x----x--x--x-x--|
E]--10-10--5-5--/10-10--5-5--/10-10--5-5--/10-10--5-5--|

E]-----------------------------------|     |------------|
B]-----------------------------------|     |------------|
G]--14-14-14-14-14---14-14-14-14-14--|     |--14-14-14--|
D]---x--x--x--x--x----x--x--x--x--x--| x2  |---x--x--x--|
A]--12-12-12-12-12---12-12-12-12-12--|     |--12-12-12--|
E]-----------------------------------|     |------------|

E]-----------------------------------------------------|
B]-----------------------------------------------------|
G]-----------------------------------------------------|
D]--12-12--7-7--/12-12--7-7--/12-12--7-7--/12-12--7-7--|
A]---x--x--x-x----x--x--x-x----x--x--x-x----x--x--x-x--|
E]--10-10--5-5--/10-10--5-5--/10-10--5-5--/10-10--5-5--|

E]-----------------------------------|     |------------|
B]-----------------------------------|     |------------|
G]--14-14-14-14-14---14-14-14-14-14--|     |--14-14-14--|
D]---x--x--x--x--x----x--x--x--x--x--| x2  |---x--x--x--|
A]--12-12-12-12-12---12-12-12-12-12--|     |--12-12-12--|
E]-----------------------------------|     |------------|

E]-----------------------------------------------------|
B]-----------------------------------------------------|
G]-----------------------------------------------------|
D]--12-12--7-7--/12-12--7-7--/12-12--7-7--/12-12--7-7--|
A]---x--x--x-x----x--x--x-x----x--x--x-x----x--x--x-x--|
E]--10-10--5-5--/10-10--5-5--/10-10--5-5--/10-10--5-5--|


Middle Section: (1:33)
E]------------------------------------------------------------|
B]--5h6------------5h6------------5h6------------5h6----------|
G]------5--------------5--------------5--------------5--------|
D]--------7---7----------7---7----------7---7----------7---7--|
A]----------5--------------5--------------5--------------5----|
E]------------------------------------------------------------|
PM          .              .              .              .

E]--3/5------------3/5------------3/5------------3/5----------|
B]------6--------------6--------------6--------------6--------|
G]--------7---7----------7---7----------7---7----------7---7--|
D]----------8--------------8--------------8--------------8----|
A]------------------------------------------------------------|
E]------------------------------------------------------------|
PM          .              .              .              .


Verse 3: (1:41)
E]------------------------------------------------------------|
B]--5h6------------5h6------------5h6------------5h6----------|
G]------5--------------5--------------5--------------5--------|
D]--------7---7----------7---7----------7---7----------7---7--|
A]----------5--------------5--------------5--------------5----|
E]------------------------------------------------------------|
PM          .              .              .              .

E]--3/5------------3/5------------3/5------------3/5----------|
B]------6--------------6--------------6--------------6--------|
G]--------7---7----------7---7----------7---7----------7---7--|
D]----------8--------------8--------------8--------------8----|
A]------------------------------------------------------------|
E]------------------------------------------------------------|
PM          .              .              .              .

E]------------------------------------------------------------|
B]--5h6------------5h6------------5h6------------5h6----------|
G]------5--------------5--------------5--------------5--------|
D]--------7---7----------7---7----------7---7----------7---7--|
A]----------5--------------5--------------5--------------5----|
E]------------------------------------------------------------|
PM          .              .              .              .

E]--3/5------------3/5------------3/5------------3/5----------|
B]------6--------------6--------------6--------------6--------|
G]--------7---7----------7---7----------7---7----------7---7--|
D]----------8--------------8--------------8--------------8----|
A]------------------------------------------------------------|
E]------------------------------------------------------------|
PM          .              .              .              .

E]-------------------------------|
B]--/10~---10--11--11^12--11~----| <- Guitar One
G]--/10~---10---9------7---5~----| <- Guitar Two
D]-------------------------------|
A]-------------------------------|
E]-------------------------------|


Interlude: (1:58)
E]----------------------------------------------------|
B]----------------------------------------------------|
G]----------------------------------------------------|
D]---------------------------5--6--6^8---6--53/5~-----|
A]--6--8--8^10--8--65/6~----6--8--8^10--8--65/6~------|
E]----------------------------------------------------|

E]------------------------------11--13--13^15--13--1110/11~-----|
B]--------------------------------------------------------------|
G]--8--10--10^12--10--87/8~-----8--10--10^12--10---8-7/-8~------|
D]--5---6---6^8----6--53/5~-----5---6---6^8----6---5-3/-5~------|
A]--6---8---8^10---8--65/6~-----6---8---8^10---8---6-5/-6~------|
E]--------------------------------------------------------------|


Verse 4: (2:08)
E]---------------------------|
B]---------------------------|
G]---------------------------|
D]---------------------------| x4
A]--6---8--10---8--6--5--6---| <- Guitar 2 (Tremolo pick)
E]--8--10--11--10--8--7--8---| <- Guitar 1 (Tremolo pick)

E]-----------------------|
B]-----------------------|
G]-----------------------|
D]-----------------------| x3
A]--6---8--10---8--6--5--| <- Guitar 2
E]--8--10--11--10--8--7--| <- Guitar 1

E]-----------------------|
B]-----------------------|
G]-----------------------|
D]-----------------------|
A]--6---8--10---8--6--5--| <- Guitar 2 (Tremolo pick)
E]--8--10--11--10--8--7--| <- Guitar 1 (Tremolo pick)


Verse 5: (2:25)
E]-------------------------------|     |----------------------------------|
B]--8-8---------11-11-10-10------|     |--8-8-----8-8-----8-8-----8-8-----|
G]------7-7-8-8-------------7-7--| x5  |------7-7-----7-7-----7-7-----7-7-|
D]-------------------------------|     |----------------------------------|
A]-------------------------------|     |----------------------------------|
E]-------------------------------|     |----------------------------------|

E]-------------------------------|
B]--8-8---------11-11-10-10------|
G]------7-7-8-8-------------7-7--| x5
D]-------------------------------|
A]-------------------------------|
E]-------------------------------|


Outro Chorus: (2:42)
E]-----------------------------------------|
B]-----------------------------------------|
G]-----------------------------------------|
D]--10-10-10-10-10-10---12-12-12-12-12-12--|
A]---8--8--8--8--8--8----8--8--8--8--8--8--|
E]-----------------------------------------|

E]-------------------------------------------------------|
B]--1p0----------1p0----------1p0-----------1p0----------|
G]------2p0----------2p0----------2p0-----------2p0------|
D]----------3p0----------3p0-----------3p0----------3p0--|
A]-------------------------------------------------------|
E]-------------------------------------------------------|

E]-----------------------------------------|
B]-----------------------------------------|
G]-----------------------------------------|
D]--10-10-10-10-10-10---12-12-12-12-12-12--|
A]---8--8--8--8--8--8----8--8--8--8--8--8--|
E]-----------------------------------------|


Outro: (2:59)
E]----------------------------|
B]----------------------------|
G]----------------------------| Not sure on strumming pattern
D]--12-------8/12---8/12------| x5
A]---8-------5/-8---5/-8------|
E]--10-------6/10---6/10------|
Related for Like A Cat tab