Song name
# A B C D E F G H I J K L M N O P Q R S T U V W X Y Z

The Number 12 Looks Like You - An Aptly Fictional Description tab

AN APTLY FICTIONAL DESCRIPTION (outroduction) - The Number Twelve looks like you

Tabbed by: Jarrett Fields
E-mail:jrtflds@gmail.com

Enjoy!


Standard Tuning

e------:---2--------:
b---3--:-----5h0-3h0:
g-----4:------------:
d------:------------: 
a-2----:-2----------:
e------:------------:

  x3     on the 4th

e-2-----5----------------:
b---3-----3-----3-5/7-5-3:
g-----4-----4------------: 
d------------------------: 
a------------------------:
e------------------------:

e---------------------------------------------------------------------:
b-4--4---5---5---5---5---5---5-------5---5-------5---5-------5---5---5:
g-3----3-4-----4-7-----7-3-----3---6---6---6---3---3---3---4---4---4--: 
d-x------x-------x-------x--------------------------------------------:
a-2-2----4-4-----5-5-----4-4-----5-----------4-----------5------------:
e---------------------------------------------------------------------:

e-------:
b---3---:
g-----4-:
d-------:
a-2-----:
e-------:

e----------------:
b-4---4---3---3--:
g-3---3---2---2--:
d-x-------x------:
a-2-2---2-2-2---2:
e----------------:

e--------------------:
b-3---2-3---2-5-3-2--:
g---4-----4---------4:
d--------------------:
a--------------------:
e--------------------:

e-2-3p2----------:
b-------5-2-3p2--:
g---------------4:
d----------------:
a----------------:
e----------------:
Tap to rate this tab
# A B C D E F G H I J K L M N O P Q R S T U V W X Y Z