Guitaretab - guitar tabs
Song name
# A B C D E F G H I J K L M N O P Q R S T U V W X Y Z

The Number 12 Looks Like You - Dont Get Blood On My Prada Shoes tab

----------------------------------------------------------------------------
     The Number 12 Looks Like You - Don't Get Blood On My Prada Shoes
----------------------------------------------------------------------------
Tabbed by: thedude22
Tuning:EADGBE (standard)
Guitar 1 below and scroll down for Guitar 2

********************************GUITAR 1************************************
-
e|------------------------------------------------------------------------|
B|------------------------------------------------------------------------|
G|------------------------------------------------------------------------|
D|---------------------------------------------5+------5------6---3--5----|
A|5-5-5-5-4--9--8--7--6--6--5---9--8--7--6--5---3--6----5-6------------4-|
E|4-4-4-4-3--8--7--6--5---------8--7--6--5--4--------------------------6-|

e|----------------------------------------------------------|
B|----------------------------------------------------------|
G|----------------------------------------------------------|
D|6-6-6-6-6-6-6-5-5-5-5-5-5-5-6-6-6-6-6-6-6-5-5-5-5-5-5-5--| Play 4x
A|----------------------------------------------------------|
E|----------------------------------------------------------|

e|-6/9-9-----------6/9-9-----6/9-9-|
B|-5/8-8-----------5/8-8-----5/8-8-| Play
G|4/7-7--x-x-x-x--4/7-7-x-x-4/7-7-|  3x
D|--------------------------------|
A|--------------------------------|
E|---------------------------------|

e|--------------------------------|
B|--------------------------------|
G|--------------------------------|
D|-----------------11-10----------|
A|10-9-8--10-9-8--10-9--10-9-8--|
E|9--8-7--9--8-7---------9--8-7--|

e|-6/9-9-----------6/9-9-----6/9-9-|
B|-5/8-8-----------5/8-8-----5/8-8-|
G|4/7-7--x-x-x-x--4/7-7-x-x-4/7-7-| 
D|--------------------------------|
A|--------------------------------|
E|---------------------------------|

e|-------------------------------------|
B|-------------------------------------|
G|-------------------------------------|
D|---------11-10-----------------------|
A|10-9-8--10-9--10-9-8--10-9-8--10-9|
E|9--8-7---------9--8-7--9--8-7-9--8|

e|---------------------------------|
B|---------------------------------|
G|---------------------------------|
D|1-1--1-1--1-1-1-1-1--1-1--1-1-1-| Play
A|1-1--1-1--1-1-1-1-1--1-1--1-1-1-|  2x
E|1-1--1-1--1-1-1-1-1--1-1--1-1-1-|

e|--------6/9-9-------6/9-9--|
B|--------5/8-8-------5/8-8--|
G|-------4/7-7-------4/7-7--| Play
D|--------------------------|  2x
A|10-9-8--------10-9--------|
E|-9--8-7--------9--8--------|

e|--------------------------------------------------19-15--19-19-19-19-|
B|----8-8/12---8-8/12-------0/12----8-8/12---8-8/12--------------------|
G|----7-7/11---7-7/11--0/12---------7-7/11---7-7/11--------------------|Play
D|--------------------------------------------------------------------| 3x
A|--------------------------------------------------------------------|
E|0---------0--------------------0--------0---------------------------|

e|------------------------------|
B|------------------------------|
G|------------------------------|
D|------------------------------|
A|5-5-5-5-4--9--8--7--6--6--5--|
E|4-4-4-4-3--8--7--6--5--------|

e|-------------------|
B|-------------------|
G|-5-6---------------|
D|------5--7-8-4--5--| Play
A|-------------------|  4x
E|-------------------|

e|--------------------------------------------------------------|
B|--------------------------------------------------------------|
G|-7-8-4--5--7-8-4--5---4-5-1--2--4-5-1--2---7-8-4--5--7-8-4--5-|
D|--------------------------------------------------------------|
A|--------------------------------------------------------------|
E|-------------------------------------------------------------|
[ Tab from: http://www.guitaretab.com/t/the-number-12-looks-like-you/75656.html ]
You are supposed to tap this part but I'm not sure if it's right.
e|-------------------------------------------------|
B|-13--------------13--------------13--------------|
G|----9-12----9-12----8-11----8-11----7-10----7-10-| Play 
D|-------------------------------------------------|  2x
A|---------15--------------15--------------15------|
E|-------------------------------------------------|

e|-23-------23-------23-------23-------23-------23--------------20-19-|
B|----18-21----18-21----17-20----17-20----16-19----16-19--13/21-------|
G|--------------------------------------------------------------------|
D|--------------------------------------------------------------------|
A|--------------------------------------------------------------------|
E|---------------------------------------------------------------------


********************************GUITAR 2************************************

e|------------------------------------------------------------------------|
B|------------------------------------------------------------------------|
G|------------------------------------------------------------------------|
D|---------------------------------------------------5--------6---3--5----|
A|5-5-5-5-4--9--8--7--6--6--5---9--8--7--6--5--3--6----5-6-------------4-|
E|4-4-4-4-3--8--7--6--5---------8--7--6--5--4--------------------------6-|

e|----------------------------------------------------------|
B|----------------------------------------------------------|
G|----------------------------------------------------------|
D|3-3-3-3-3-3-3-2-2-2-2-2-2-2-3-3-3-3-3-3-3-2-2-2-2-2-2-2--| Play 4x
A|----------------------------------------------------------|
E|----------------------------------------------------------|

(First Guitar then Second Guitar Joins In)
e|-------------------------------------|
B|-------------------------------------|
G|-------9/1212------9/12129/1212| Play
D|-------8/1111------8/11118/1111| 2x
A|-------7/1010------7/10107/1010|
E|---7-7-------------------------------|

e|--------------------------------|
B|--------------------------------|
G|--------------------------------|
D|-----------------11-10----------|
A|10-9-8--10-9-8--10-9--10-9-8--|
E|9--8-7--9--8-7---------9--8-7--|

e|--------------------------------|
B|--------------------------------|
G|--9/1212------9/12129/1212| 
D|--8/1111------8/11118/1111| 
A|--7/1010------7/10107/1010|
E|--------------------------------|

e|-------------------------------------|
B|-------------------------------------|
G|-------------------------------------|
D|---------11-10-----------------------|
A|10-9-8--10-9--10-9-8--10-9-8--10-9|
E|9--8-7---------9--8-7--9--8-7-9--8|

e|---------------------------------|
B|---------------------------------|
G|---------------------------------|
D|1-1--1-1--1-1-1-1-1--1-1--1-1-1-| Play
A|1-1--1-1--1-1-1-1-1--1-1--1-1-1-|  2x
E|1-1--1-1--1-1-1-1-1--1-1--1-1-1-|

e|---------------------------------|
B|---------------------------------|
G|----------9/1212--------9/1212-| Play
D|----------8/1111--------8/1111-|   2x
A|--10-9-8--7/1010--10-9--7/1010-|
E|---9-8-7-----------9--8---------|

e|-------------------------------------------------|
B|----------------------0/12----------------------|
G|---3-3----33---0/12-----------3--3-----3--3-----| Play
D|233--2-33---------------2--3--3--2--3--3-----| 3x
A|211--2-1-1---------------2--1--1--2--1--1-----|
E|0------0-------------------0--------0-----------|

e|------------------------------|
B|------------------------------|
G|------------------------------|
D|------------------------------|
A|5-5-5-5-4--9--8--7--6--6--5--|
E|4-4-4-4-3--8--7--6--5--------|

e|-------------------|
B|-------------------|
G|-------------------|
D|-------------------| Play
A|3-4---------------|  4x
E|------3--5-6-2--3--|

e|--------------------------------------------------------|
B|--------------------------------------------------------|
G|--------------------------------------------------------|
D|--------------------------------------------------------|
A|--------------------------------------------------------|
E|5-6-2--3--5-6-2--3-----------------5-6-2--3-5-6-2--3--|

2nd Guitar rests during the last part

============================================================================
| /  slide up
| \  slide down
| h  hammer-on
| p  pull-off
| ~  vibrato
| +  harmonic
| x  Mute note
============================================================================
Related for Dont Get Blood On My Prada Shoes tab