Guitaretab - guitar tabs
Song name
# A B C D E F G H I J K L M N O P Q R S T U V W X Y Z

The Number 12 Looks Like You - Clarissa Explains Cuntainment tab

Band: The Number 12 Looks Like You
Album: An Inch Of Gold For An Inch Of Time
Track: Clarissa Explains Cuntainment

Tuning: Standard (Guitar 1 shifts to Drop-D at 1:55)

pm: palm mute. the periods (.) indicate muted notes.
/: slide
~: let ring
h: hammer-on
p: pull-off
t: tremolo

 This is tabbed from the version off of An Inch
Of Gold For An Inch Of Time, and does not really differ much from the one off of
Nuclear.Sad.Nuclear aside from the switch from standard tuning to Drop-D as in 
this version, and the extended ending in the other. Have fun, and if you have 
any comments or anything, e-mail me at webmaster at tabslist.com. Thanks!

Guitar 1 (0:00)
E----------------------------------------------------------5/17/19/17/5-----|
B-17-----------------------------------------------------5--------------5---|
G----14------------------------------------------------5------------------5-|
D-------14/10-10-7----7------------------------------7----------------------|
A------------------10-------------------------------------------------------|
E---------------------------------------------------------------------------|
pm:

Guitar 2 (0:00)
E-15----------------------------------------------15------------------------|
B----13----------------------------------------13---------------------------|
G-------12/10/12--9----------------9--12/10/12------------------------------|
D--------------------10-9----9-10-------------------------------------------|
A-------------------------12------------------------------------------------|
E---------------------------------------------------------------------------|
pm:

Both Guitars (0:07)
E-------------------------------------|
B-------------------------------------|
G-2t----------------------------------|
D----2t------------0/2-------2t-------|
A-------0t-2t-3t----------------3t-2t-|
E----------------------1t-4t----------|
pm:

Guitar 1 (0:11)
E----------------------------------|
B----------------------------------|
G-2--2--2--10-9--2--2--2--2--2--10-|
D-x--x--x--8--7--x--x--x--x--x--8--| x3
A-0--0--0--------0--0--0--0--0-----|
E----------------------------------|
pm:




Guitar 2 (0:11)
E----------------------------------|
B----------------------------------|
G-2--5--2--10-9--2--5--2--5--2--10-|
D-x--x--x--8--7--x--x--x--x--x--8--| x3
A-0--3--0--------0--3--0--3--0-----|
E----------------------------------|
pm:

Guitar 1 (0:22)
E-------------------5-|
B-------------------5-|
G-2--2--2--10-9--2t---|
D-x--x--x--8--7--x----|
A-0--0--0--------0t---|
E---------------------|
pm:

Guitar 2 (0:22)
E-------------------5-|
B-------------------5-|
G-2--5--2--10-9--2t---|
D-x--x--x--8--7--x----|
A-0--3--0--------0t---|
E---------------------|
pm:

Both Guitars (0:24)
E-------------------------------------------|
B-6-5-3-1--1-1t---------------------3-1-3-1-|
G-7-5-5-2--2-2t--2-7-5-4-2--2-2t--2-4-2-4-2-|
D----------------3-6-3-3-2--2-2t--3---------|
A-------------------------------------------|
E-------------------------------------------|
pm:

Guitar 1 (0:30)
E---------------8-7--------------8-7-|
B-10----------------8/10p8-----------|
G----9---9p7---------------5-4h5-----|
D------7-----------------------------| x9
A------------10----------------------|
E------------------------------------|
pm:    .      .

Guitar 2 (0:35)
E----------|----------|----------|------------|
B----------|----------|----------|------------|
G----------|-5~---5-5-|----------|-5~---5-5-5-|
D-2~---2-2-|-5~---5-5-|-2~---2-2-|-5~---5-5-5-|
A-2~---2-2-|-3~---3-3-|-2~---2-2-|-3~---3-3-3-|
E-0~---0-0-|----------|-0~---0-0-|------------|
pm:

Guitar 1 (0:51)
E-7------------12-------------7-------|
B-----8-------------10------------8---|
G---9-----9-------9------9------9-----|
D-------9--------------9------------9-|
A-----------10-------------10---------|
E-------------------------------------|
pm:

Guitar 1 (0:54)
E-7------------12-------------|
B-----8-------------10--------|
G---9-----9-------9------9----|
D-------9--------------9------| x2
A-----------10-------------10-|
E-----------------------------|
pm:

Guitar 1 (0:57)
E-7------------12-|
B-----8-----------|
G---9-----9-------|
D-------9---------|
A-----------10----|
E-----------------|
pm:

Guitar 1 (0:58)
E-7------------12-------------|
B-----8-------------10--------|
G---9-----9-------9------9----|
D-------9--------------9------| x8
A-----------10-------------10-|
E-----------------------------|
pm:

Guitar 2 (0:54)
E---------------8-7--------------8-7-|
B-10----------------8/10p8-----------|
G----9---9p7---------------5-4h5-----|
D------7-----------------------------| x8
A------------10----------------------|
E------------------------------------|
pm:    .      .

Solo (Guitar 3??) (0:59)
E-----------8---7/8-5--10----------------------|
B-------9-7------------------------------------|
G---9-7-------------------9-10-12-10-9-10b~9b~-|
D-7-----------7~-------------------------------|
A----------------------------------------------|
E----------------------------------------------|
[ Tab from: http://www.guitaretab.com/t/the-number-12-looks-like-you/76826.html ]
Solo (1:04)
E--------------------19b-17-------7-----12b-10b~-|
B-10------10-------------------------------------|
G-----------------------------999---7------------|
D----7h10----9--------------7---------5----------|
A--------------10-12-----------------------------|
E------------------------------------------------|

Solo (1:09)
E----------------------------7/8/3-7-8-------12b-13b~-|
B--------------------------------------8--------------|
G---------9-------10----9----------------7-9----------|
D---9-7-9-----999----10-------------------------------|
A-7---------7-------------10--------------------------|
E-----------------------------------------------------|

Guitar 1 (1:13)
E-------------------------------|
B-------------------------------|
G-3-0-3-0-----------------------|
D---------2--2-4-5-4-2--5-------|
A------------2-4-5-4-2----7-----|
E------------0-2-3-2-0------5h8-|
pm:          . . . . .

Guitar 2 (1:13)
E-----------------------------|
B-2---------------------------|
G---2---1---------------------|
D-----4---2--2-4-5-4-2--4-----|
A------------2-4-5-4-2----5-4-|
E------------0-2-3-2-0--------|
pm:          . . . . .

Both Guitars (1:15)
E-----------------------|
B-----------------------|
G-----------------------|
D--2-2-2-222--4-5-4-554-|
A--2-2-2-222--4-5-4-554-|
E--0-0-0-000--2-3-2-332-|
pm:. . . ...  . . .

Both Guitars (1:17)
E------------|
B------------|
G------------|
D--2-2-2-222-| x4
A--2-2-2-222-|
E--0-0-0-000-|
pm:. . . ...

Guitar 1 (1:21)
E----------5--------------------|
B---6--------5------------------|
G-7------7-----7-5--------5-7---|
D---------------------5-7-----7-|
A-------------------------------|
E-------------------------------|
pm:

Guitar 1 (1:26)
E---------------------------------------------------------|
B---------------------------------------------------------|
G-5-4-5t-5-4-5t-4-2-4t-4-2-4t-----------------------------|
D-----------------------------5-4-5t-5-4-5t-7-5-7t-7-5-7t-|
A---------------------------------------------------------|
E---------------------------------------------------------|
pm:

Guitar 2 (1:26)
E---------------------------------------------------------|
B---------------------------------------------------------|
G---------------------------------------------------------|
D---------------------------------------------------------|
A-----------------------------7-5-7t-7-5-7t---------------|
E-5-3-5t-5-3-5t-8-7-8t-8-7-8t---------------7-5-7t-7-5-7t-|
pm:

Both Guitars (1:33)
E---------------------------------------------------------|
B---------------------------------------------------------|
G---------------------------------------------------------|
D---------------------------------------------------------|
A-----------------------------7-5-7t-7-5-7t---------------|
E-5-3-5t-5-3-5t-8-7-8t-8-7-8t---------------7-5-7t-7-5-7t-|
pm:

Guitar 1 (1:39)
E---------------------------------------------------------|
B---------------------------------------------------------|
G-554455-554455-775577-775577-----------------------------|
D-----------------------------554455-554455-775577-775577-|
A---------------------------------------------------------|
D---------------------------------------------------------|
pm:

Guitar 2 (1:39)
E---------------------------------------------------------|
B---------------------------------------------------------|
G---------------------------------------------------------|
D-----------------------------775577-775577---------------|
A-553355-553355-887788-887788---------------775577-775577-|
E---------------------------------------------------------|
pm:


Guitar 1 (1:55)
E---|
B---|
G---|
D---| (Immediately after hitting open string, 
A---|  drop string to D and then mute.)
E-0-|
pm:

Both Guitars (1:57)
(Improvise on the random high notes here)

Guitar 1 (2:07)
E-------------------------------------|
B-------------------------------------|
G-55-22-----3/4t-4/7t--55-22----------|
D-------3-0------------------3-0-5--4-|
A--------------------------------x--x-|
D--------------------------------5--4-|
pm:       .                    .

Guitar 2 (2:07)
E-------------------------------------|
B-------------------------------------|
G-55-22-----3/4t-4/7t--55-22----------|
D-------3-0------------------3-0-5--4-|
A--------------------------------x--x-|
E--------------------------------3--2-|
pm:       .                    .

Guitar 1 (2:11)
E--------------------------------------|
B--------------------------------------|
G-55-22-----3/4t-4/7t--55-22-----------|
D-------3-0------------------3-0-0-0/3-|
A--------------------------------------|
D--------------------------------------|
pm:       .                    .

Guitar 2 (2:11)
E-------------------------------------|
B-------------------------------------|
G-55-22-----3/4t-4/7t--55-22----------|
D-------3-0------------------3-0-5--4-|
A--------------------------------x--x-|
E--------------------------------3--2-|
pm:       .                    .


Guitar 1 (2:15)
E-------------------------------------------|
B-------------------------------------------|
G-554455-554455-442244-442244---------------|
D-----------------------------554455-554455-|
A-------------------------------------------|
D-------------------------------------------|
pm:

Guitar 2 (2:15)
E-------------------------------------------|
B-------------------------------------------|
G-------------------------------------------|
D-----------------------------775577-775577-|
A-553355-553355-887788-887788---------------|
E-------------------------------------------|
Related for Clarissa Explains Cuntainment tab
Advertisement will be closed in 10 seconds