Song name
# A B C D E F G H I J K L M N O P Q R S T U V W X Y Z

The Number 12 Looks Like You - Empty Calm tab

EMPTY CALM
As recorded by The Number 12 Looks Like You


	



Gtr I (E A D G B E) - 'Untitled'

 4/4
  Gtr I
  E E E E E E E E   E E E E E E E E
|-----------------|-----------------|
|---------1-------|-----1-----------|
|---2-------2---2-|-------2---2-----|
|-----3-----------|-3-----------3---|
|-----------------|-----------------|
|-1-----1-----1---|---1-----1-----1-|



                        Am
  E E E E E E E E   E E E E E E E E   E E E E
|-1---------------|-----------------|---------|
|---1---------1---|-----1-------3---|-5-------|
|-------2-------2-|-------2-------2-|---2-----|
|---------3-------|---------2-------|-----2---|
|-----------------|-----0-----0-----|-0-----0-|
|-----1-----1-----|-1-3-------------|---------|



  Q  E E E E E E E E E E Q    E E E E E E E E   E E Q  E E E E   E E E E E E
|---------------------------|-----------------|----------------|-------------|
|-0--1-------0---3-------0--|-1-------3---5---|-----0--1-------|-0---3-------|
|------2-------2---2--------|---2-------2---2-|----------2-----|---2---2-----|
|--------2-----------2------|-----2-----------|-2----------2---|---------2---|
|----0-----0-----0-----0----|-0-----0-----0---|---0----0-----0-|-----0-----0-|
|---------------------------|-----------------|----------------|-------------|



  S.S S E E   E E E E E E E E   E E E E  E E E E   E E E E  E E q
|-----------|---------7-------|-----9------------|-7------------9---|
|-0h1p0-----|---5-------5---5-|-------5----5-----|---5---5----------|
|-------1s6-|-----6-----------|-6------------6---|----------6-------|
|-----------|-7-----7-----7---|---7------7-----7-|-----7------7-----|
|-----------|-----------------|------------------|------------------|
|-----------|-----------------|------------------|------------------|



   E  E  E  E  q     E  E  E E  q
|----------10-----|----------9-----|
|-12----------12--|-10---------10--|
|----12-----------|----11----------|
|-------12--------|-------11-------|
|-10--------------|--9-------------|
|-----------------|----------------|



  E E E E q    E  E  E  E  E  E    E E E E E E
|-7-----7----|---10-------10----|----7-----7----|
|---8-----8--|------10-------10-|------8-----8--|
|-----7------|---------11-------|--------9------|
|-0----------|-9----------------|---------------|
|------------|------------------|-10------------|
|------------|------------------|---------------|



   E E E E E Q    S S E E E H      Q  E E E e Q  E E E e Q  E E H.
|----7-----7----|-2h3p2-----5----|-5--------5-7-----------------------|
|------7-----7--|-------3--------|----3-------------------------------|
|--------7------|---------2------|------4--------6-----0-7------7-----|
|---------------|-0--------------|-----------------7--------5---------|
|-10------------|----------------|------------------------------------|
|---------------|----------------|-3------3---5------5---7----7-------|



  Q  E E E e Q  E E E  Q  E E H.        Q  E E E e Q  E E E e Q  E E h
|-5--------5-7------------------------|-5--------5-7----------------------|
|----3--------------------------------|----3------------------------------|
|------4--------6------7------7-------|------4--------6-----0-7------7----|
|-----------------7-------5-----------|-----------------7--------5--------|
|-------------------------------------|-----------------------------------|
|-3------3---5------5--7----7---------|-3------3---5------5---7----7------|



  Q  E E E e Q  E E E e Q  E E h
|-5--------5-7----------------------|
|----3------------------------------|
|------4--------6-----0-7------7----|
|-----------------7--------5--------|
|-----------------------------------|
|-3------3---5------5---7----7------|



   Q   E  E  q     Q   E  E  q    Q  E E q
|---------------|---------------|-----------|
|-12--------12--|-10--------10--|-8------8--|
|--------12-----|--------11-----|------9----|
|-----12--------|-----11--------|----9------|
|-10------------|--9------------|-7---------|
|---------------|---------------|-----------|



  Q  E E q     Q   E  E  q     Q   E  E  q    Q  E E q    Q  E E q
|-----------|---------------|---------------|-----------|------------|
|-7------7--|-12--------12--|-10--------10--|-8------8--|-7------7---|
|------7----|--------12-----|--------11-----|------9----|------7-----|
|----7------|-----12--------|-----11--------|----9------|----7-------|
|-5---------|-10------------|--9------------|-7---------|-5----------|
|-----------|---------------|---------------|-----------|------------|



   Q   E  E  q     Q   E  E  q    Q  E E q    Q  E E q     Q   E  E  q
|---------------|---------------|-----------|-----------|----------------|
|-12--------12--|-10--------10--|-8------8--|-7------7--|-12--------12---|
|--------12-----|--------11-----|------9----|------7----|--------12------|
|-----12--------|-----11--------|----9------|----7------|-----12---------|
|-10------------|--9------------|-7---------|-5---------|-10-------------|
|---------------|---------------|-----------|-----------|----------------|



   Q   E  E  q    Q  E E q    Q  E E q    Q  E E q  Q  E E q    Q  E E q
|---------------|-----------|-----------|---------------------|------------|
|-10--------10--|-8------8--|-7------7--|-3------3--3------3--|-2------2---|
|--------11-----|------9----|------7----|----0---------0------|----0-------|
|-----11--------|----9------|----7------|------4---------4----|------4-----|
|--9------------|-7---------|-5---------|-2---------2---------|-0----------|
|---------------|-----------|-----------|---------------------|------------|



  Q  S S E q    Q  E E q    Q  E E q    Q  E E q    Q  E E q
|-------------|-----------|-----------|-----------|-----------|
|-3--2h3p2-2--|-3------3--|-5------5--|-7------7--|-8------8--|
|-------------|----0------|----0------|----0------|----0------|
|-------------|-0----0----|-0----0----|-0----0----|-0----0----|
|-2-----------|-----------|-----------|-----------|-----------|
|-------------|-----------|-----------|-----------|-----------|



   Q  E E  q     Q  E E  q     Q  E E  q
|-------------|-------------|-------------|
|-10------10--|-12------12--|-14------14--|
|-----0-------|-----0-------|-----0-------|
|--0----0-----|--0----0-----|--0----0-----|
|-------------|-------------|-------------|
|-------------|-------------|-------------|



   Q  E E  q     W          E E E E q
|-------------|-----------|---------7---|
|-15------15--|-17--------|-------8-----|
|-----0-------|-----------|-----9-------|
|--0----0-----|--0--------|---9---------|
|-------------|-----------|-7-----------|
|-------------|-----------|-------------|



  E E E E q    E E E E E E Q  E E E E   E E E E E S S   E E E E Q
|------------|------------------------|---------------|-------------|
|------------|------------------------|-1-------1-----|-0-------0---|
|-8-----8----|----------------------4-|---2-----------|---0---------|
|---9-----9--|-------------4------4---|-----2-----0h2-|-----0-------|
|-----9------|-------2-3-5------5-----|-0-----0-------|-------------|
|-7----------|-2-3-5----------5-------|---------------|-3-----3-----|



  E E E E E E H.        Q  E E E E Q  S T T E Q  Q  E E Q  H.
|---------------------|-3--------3-2--2h3p2p0-2--5------7--5-------|
|---------------------|----0------------------------0--------------|
|-2-------2---0-------|------0------------------------0------------|
|---0-------0---------|-2------2---0----------0--5---------5-------|
|-----0---------------|--------------------------------------------|
|-2-----2-----3-------|--------------------------------------------|



  Q  E E E E Q  S T T E Q
|--------------------------|
|-3--------3-2--2h3p2p0-2--|
|----0---------------------|
|------4-------------------|
|-2------2---0-------------|
|--------------------------|



              ~
  Q   E E E E H     4x
|-------------------||----|
|-5-------5s7-5----o||----|
|-------2-----------||----|
|-----5-------------||----|
|-0----------------o||----|
|-------------------||----|




Duration Legend
---------------
W - whole; H - half; Q - quarter; E - 8th; S - 16th; T - 32nd; X - 64th; a - acciaccatura
+ - note tied to previous; . - note dotted; .. - note double dotted
Uncapitalized letters represent notes that are staccato (1/2 duration)
Irregular groupings are notated above the duration line
Duration letters will always appear directly above the note/fret number it represents the
duration for.  Duration letters with no fret number below them represent rests.  Multi-
bar rests are notated in the form Wxn, where n is the number of bars to rest for.  Low
melody durations appear below the staff

Tablature Legend
----------------
 h   - hammer-on
 p   - pull-off
 b   - bend
 pb  - pre-bend
 r   - bend release (if no number after the r, then release immediately)
 /\  - slide into or out of (from/to "nowhere")
 s   - legato slide
 S   - shift slide
 - natural harmonic
[n]  - artificial harmonic
n(n) - tapped harmonic
 ~   - vibrato
 tr  - trill
 T   - tap
 TP  - trem. picking
 PM  - palm muting
\n/  - tremolo bar dip; n = amount to dip
 \n  - tremolo bar down
 n/  - tremolo bar up
/n\  - tremolo bar inverted dip
 =   - hold bend; also acts as connecting device for hammers/pulls
 <> - volume swell (louder/softer)
 x   - on rhythm slash represents muted slash
 o   - on rhythm slash represents single note slash

Misc Legend
-----------
 |  - bar
||  - double bar
||o - repeat start
o|| - repeat end
*|  - double bar (ending)
 :  - bar (freetime)
 $  - Segno
 &  - Coda
Tempo markers -  = BPM(8/16=s8/s16), where s8 = swing 8ths, s16 = swing 16ths

Tap to rate this tab
# A B C D E F G H I J K L M N O P Q R S T U V W X Y Z