Song name
# A B C D E F G H I J K L M N O P Q R S T U V W X Y Z

The Number 12 Looks Like You - Operating On A Re-run Episode tab

Band: The Number 12 Looks Like You
Song: Operating on a re-run episode
Tabber: shoegazex4@yahoo.com (Raphi)

e[-----------------------------------------------------]
B[---------------------------------------8-8-11-6-6----]
G[-----------------------(x10)-----------x-x-x--x-x----]
D[--(bass)--(x5)--5-5-8-3-3----5-5-8-3-3-5-5-8--3-3----]
A[----------------5-5-8-3-3----------------------------]
E[-3-3-6-1-1------3-3-6-1-1----------------------------]

e[-----------------------------------------------------]
B[-----------------------------------------------------]
G[---------------(x2)---------------(x4)---------------]
D[---------------------------5-5-8-3-3-----------------]
A[-0h3-3-3-3-3-1/5-5-5-5-5---5-5-8-3-3-----------------]
E[---------------------------3-3-6-1-1-----------------]

e[-----------------------------------------------------]
B[-----------------------------------------------------]
G[---------------(x2)---------------(x2)---------------]
D[---------------------------5-5-8-3-3-----------------]
A[-0h3-3-3-3-3-1/5-5-5-5-5---5-5-8-3-3-----------------]
E[---------------------------3-3-6-1-1-----------------]

e[--------------------]----------------]
B[-11-11-10-13--------]-11-11-13-11----]
G[-12-12-10-14--(x3)--]-12-12-14-12----]
D[-x--x--x--x---------]-x--x--x--x-----]
A[-10-10-8--12--------]-10-10-12-10----]
E[--------------------]----------------]

e[------------------8--------------]
B[-11-10-8-10-11-10---10b----------]
G[------------------------5--------]
D[--------------------------5-8-7--]
A[---------------------------------]
E[---------------------------------]
Tap to rate this tab
# A B C D E F G H I J K L M N O P Q R S T U V W X Y Z