Song name
# A B C D E F G H I J K L M N O P Q R S T U V W X Y Z

The Number 12 Looks Like You - Rememberance Dialogue tab

-------
Rememberance Dialogue - The Number Twelve Looks Like You
-------

NOTE*** In this song the chords are played very slowly and you let them ring for awhile
going to the next.  I only have the first part of the song but I'm working on the part
the lyrics come in. So here you go, if this helps you tab the rest of the song, go 
if not, i'll be working on it.

Also, remember that all notes are supposed to ring out.

|-8------8------8------8------8-------8-------8-------8-------|
|---10-----10-----10-----10-----10------10------10------10----|
|------9------9------9------9------10------10------10------10-| 4x
|-------------------------------------------------------------|
|-------------------------------------------------------------|
|-------------------------------------------------------------|


|---|---8----3---5--7--4--5---9----3---5--7--4-5-8--|
|---|---10---5---6-----x------10---5---6-----x---10-|
|-9-|---10---5---7-----5------10---5---7-----5---10-|
|-7-|-----------------------------------------------|
|-7-|-----------------------------------------------|
|-7-|-----------------------------------------------|

                     *don't play last time
|-8----3--5--7--4-5--8*--|
|-10---5--6-----x----10--|
|-10---5--7-----5----10--| 5x
|------------------------|
|------------------------|
|------------------------|

Then bass plays this repeating
|-------|
|-------|
|-------|
|-------|
|-0-0-3-|
|-------|


That's what I've got so far, trying to figure out the rest.... but hope it helps and I'm
it's all right what I have.
Tap to rate this tab
 
# A B C D E F G H I J K L M N O P Q R S T U V W X Y Z