Song name
# A B C D E F G H I J K L M N O P Q R S T U V W X Y Z

The Number 12 Looks Like You - Jay Walking Backwards tab

Band: The NUmber 12 Looks Like You
Song: Jay Walking Backwards
Tabber: shoegazex4@yahoo.com (Raphi)


e[-12-----12-------12--------8-------8-------8----------]
B[-----10------10-------10-------10------10------10-----]
G[---9-------9--------9--------9-------9-------9--------]
D[------------------------------------------------------]
A[------------------------------------------------------]
E[------------------------------------------------------]

e[-7--------7-------7-----------5--------5-------5----------]
B[-----8--------8--------8----------7--------7--------7-----]
G[---9--------9--------9----------9--------9-------9--------]
D[----------------------------------------------------------]
A[----------------------------------------------------------]
E[----------------------------------------------------------]

e[-12-------12-------12--------8--------8--------8--------]
B[-----10--------10-------10--------10-------10-------10--]
G[---9---------9--------9---------9--------9--------9-----]
D[--------------------------------------------------------]
A[--------------------------------------------------------]
E[--------------------------------------------------------]

e[-10-------10-------10--------8--------8--------8--------]
B[-----8---------8--------8---------7--------7--------7---]
G[---9---------9--------9---------9--------9--------9-----]
D[--------------------------------------------------------]
A[--------------------------------------------------------]
E[--------------------------------------------------------]

e[-12-------12-------12--------8--------8--------8--------]
B[-----10--------10-------10--------10-------10-------10--]
G[---9---------9--------9---------9--------9--------9-----]
D[--------------------------------------------------------]
A[--------------------------------------------------------]
E[--------------------------------------------------------]

e[-7(15)-------7(15)-------7(15)--------10--------10--------10-------]
B[--------8------------8-----------8----------7---------7--------7---]
G[------9------------9-----------9----------9---------9--------9-----]
D[-------------------------------------------------------------------]
A[-------------------------------------------------------------------]
E[-------------------------------------------------------------------]

e[-12-------12-------12--------8--------8--------8--------]
B[-----10--------10-------10--------10-------10-------10--]
G[---9---------9--------9---------9--------9--------9-----]
D[--------------------------------------------------------]
A[--------------------------------------------------------]
E[--------------------------------------------------------]

e[-10-------10-------10--------8--------8--------8--------]
B[-----8---------8--------8---------7--------7--------7---]
G[---9---------9--------9---------9--------9--------9-----]
D[--------------------------------------------------------]
A[--------------------------------------------------------]
E[--------------------------------------------------------]

e[-12-----12-------12------------]
B[-----10------10-------10-------]
G[---9-------9--------9----------]
D[-------------------------------]
A[-----(really faint)------------]
E[-------------------------------]

e[-/12-8-10-7~----------------------------------]
B[------------------(x4)------------------------]
G[-/14-9-12-------------------------------------]
D[----------10~---------------------------------]
A[----------------------------------------------]
E[----------------------------------------------]

e[----------------------------------------------]
B[----------------------------------------------]
G[------7-9-7-----7-9-7-----5-7-5-----5-7-5-----]
D[----7---------7---------5---------5-----------]
A[--0---------0---------0---------0-------------]
E[----------------------------------------------]

e[------------------------------------------------------]
B[------------------------------------------------------]
G[------12-14-12------12-14-12-----4-5-4-----4-5-4~-----]
D[---12------------12------------5---------5------------]
A[-0-------------0-------------0---------0---------(x2)-]
E[------------------------------------------------------]

e[---------------------------]
B[---------------------------]
G[-2----(x32)--14------------]
D[-2-----------x----(x8)-----]
A[-0-----------12------------]
E[---------------------------]

e[---------------------------------------------------]
B[---------------------------------------------------]
G[-2~-2~--4~-5~--------5~-4~-------------------------]
D[-2~-2~--4~-5~-3~-3~--5~-4~-------------------------]
A[-0~-0~--2~-3~-3~-3~--3~-2~-------------------------]
E[--------------1~-1~--------------------------------]

e[---------------------------------------------------]
B[---------------------4b----------------------------]
G[-2~-2~--4~-5~--------5b----------------------------]
D[-2~-2~--4~-5~-3~-3~--5b(x8)------------------------]
A[-0~-0~--2~-3~-3~-3~--3b----------------------------]
E[--------------1~-1~--------------------------------]

e[----------------------------------------------]
B[----------------------------------------------]
G[-2~-2~-x-x-4~-5~-x-x--------5~-4~-------------]
D[-2~-2~-x-x-4~-5~-x-x-3~-3~--5~-4~-------------]
A[-0~-0~-x-x-2~-3~-x-x-3~-3~--3~-2~-------------]
E[---------------------1~-1~--------------------]

e[-----------------------------------------------]
B[----------------------------4b-----------------]
G[-2~-2~-x-x-4~-5~-x-x--------5b-----------------]
D[-2~-2~-x-x-4~-5~-x-x-3~-3~--5b(x8)-------------]
A[-0~-0~-x-x-2~-3~-x-x-3~-3~--3b-----------------]
E[---------------------1~-1~---------------------]

e[--------------------------------------------------------]
B[-5t-2t-5t-2t------5t-2t-5t-2t-(9t-5t-9t-5t-)------------]
G[-------------2-5-----------------------------5-7--------]
D[-------------2-5-----------------------------5-7--------]
A[-------------0-3-----------------------------3-5--------]
E[--------------------------------------------------------]


e[-------------------------------------------------]
B[-5t-2t-5t-2t------5t-2t-5t-2t-(9t-5t-9t-5t-)-----]
G[-------------7-9---------------------------------]
D[-------------7-9---------------------------------]
A[-------------5-7---------------------------------]
E[-------------------------------------------------]

e[---------------------------------]
B[---------------------------------]
G[----------(x4)-------------------]
D[---------------------------------]
A[--------3-2-0-2-0----------------]
E[------------------3--------------]
Tap to rate this tab
# A B C D E F G H I J K L M N O P Q R S T U V W X Y Z