Song name
# A B C D E F G H I J K L M N O P Q R S T U V W X Y Z

The Number 12 Looks Like You - Grandfather tab

Band: The Number 12 Looks Like You
Song: Grandfather
Tabber: shoegazex4@yahoo.com (Raphi)

e[-------------------------------------------------------]
B[-----8-10-----8-10-----8-10-----8-10-----6-8-----6-8---]
G[-7-9------7-9------7-9------6-7------6-7-----6-7-------]
D[-------------------------------------------------------]
A[-------------------------------------------------------]
E[-------------------------------------------------------]

e[-5-5-5-5-5-5-5-5-5-5-5-5--------------]
B[-6-6-6-6-6-6-6-6-6-6-6-6--------------]
G[--------------------------------------]
D[--------------------------------------]
A[--------------------------------------]
E[--------------------------------------]

e[--------------------------------------------------------------------]
B[-------------------(x2)---------------------------------------------]
G[--------------------------------------------------------------------]
D[-----5h7-----5h7-----5h7-----5h7-----3h5-----3h5-----3h5-----3h5----]
A[-5h7-----5h7-----5h7-----5h7-----4h5-----4h5-----4h5-----4h5--------]
E[--------------------------------------------------------------------]

e[-5-5-5-5-5-5-5-5-5-5-5-5--5-5-5-5-5-5-5-5-5-5-5-5---]
B[-6-6-6-6-6-6-6-6-6-6-6-6--3-3-3-3-3-3-3-3-3-3-3-3---]
G[----------------------------------------------------]
D[----------------------------------------------------]
A[----------------------------------------------------]
E[----------------------------------------------------]

e[-------------------------------------------------------]
B[-------------------------------------------------------]
G[-6h7p6---7p6-6h7p6---7p6-6h7p6---7p6-6h7p6-------------]
D[-------9-----------9-----------9-----------9~----------]
A[-------------------------------------------------------]
E[-------------------------------------------------------]

e[------------------------------------]
B[------------------------------------]
G[------------------------------------]
D[-----5h7-----5h7-----5h7-----5h7----]
A[-5h7-----5h7-----5h7-----5h7--------]
E[------------------------------------]

e[-------------------------------------------------------]
B[-------------------------------------------------------]
G[-6h7p6---7p6-6h7p6---7p6-6h7p6---7p6-6h7p6-------------]
D[-------9-----------9-----------9-----------9~----------]
A[-------------------------------------------------------]
E[-------------------------------------------------------]

e[------------------------------------]
B[------------------------------------]
G[------------------------------------]
D[-----5h7-----5h7-----5h7-----5h7----]
A[-5h7-----5h7-----5h7-----5h7--------]
E[------------------------------------]

e[-------------------------------------------------------]
B[-------------------------------------------------------]
G[-6h7p6---7p6-6h7p6---7p6-6h7p6---7p6-6h7p6-------------]
D[-------9-----------9-----------9-----------9~----------]
A[-------------------------------------------------------]
E[-------------------------------------------------------]

e[--------------------------------------------------------------]
B[-----5h6h8/10-5h6h8-----5h6h8/10-5h6h8-----5h6h8/10-5h6h8-----]
G[-7h9----------------7h9----------------7h9--------------------]
D[--------------------------------------------------------------]
A[------------------------(x2)----------------------------------]
E[--------------------------------------------------------------]

e[-------15-------13-------10----------------------------------]
B[----------------------------------13------8---10-------------]
G[---------------------------------------------------9~--------]
D[-12/14----14\12----12\10----10/12----12\7---7----7-----------]
A[-------------------------------------------------------------]
E[-------------------------------------------------------------]

e[----------------------------------------------------]
B[-----10-10p8-0-----10-10p8-0------------------------]
G[-0-0-----------0-0----------------------------------]
D[----------------------------------------------------]
A[----------------------------------------------------]
E[----------------------------------------------------]

e[--------------------------------------------------------]
B[---------(i dont know yet sorry)------------------------]
G[-6---------------------------------------------6-6-6-6--]
D[-6---------------------------------------------6-6-6-6--]
A[-4---------------------------------------------4-4-4-4--]
E[--------------------------------------------------------]

e[-------------------------------------------------------------]
B[-------------------------------------------------------------]
G[---------2---------2---------2---------2---------------------]
D[-0-2-3-5---0-2-3-5---0-2-3-5---0-2-3-5-------2-3-5-----2-3-5-]
A[-----------------------------------------4-5-------4-5-------]
E[-------------------------------------------------------------]

e[----------------------------------------------------]
B[----------------------------------------------------]
G[----------------------------------------------------]
D[-----2-3-5-----2-3-5--------------------------------]
A[-4-5-------4-5--------------------------------------]
E[----------------------------------------------------]

e[-------------------------------------------------------]
B[-------------------------------------------------------]
G[-6h7p6---7p6-6h7p6---7p6-6h7p6---7p6-6h7p6-------------]
D[-------9-----------9-----------9-----------9~----------]
A[-------------------------------------------------------]
E[-------------------------------------------------------]

e[-------------------------------------------------------------]
B[-------------------------------------------------------------]
G[---------2---------2---------2---------2---------------------]
D[-0-2-3-5---0-2-3-5---0-2-3-5---0-2-3-5-------2-3-5-----2-3-5-]
A[-----------------------------------------4-5-------4-5-------]
E[-------------------------------------------------------------]

e[----------------------------------------------------]
B[----------------------------------------------------]
G[----------------------------------------------------]
D[-----2-3-5-----2-3-5--------------------------------]
A[-4-5-------4-5--------------------------------------]
E[----------------------------------------------------]

e[-------------------------------------------------------]
B[-------------------------------------------------------]
G[-6h7p6---7p6-6h7p6---7p6-6h7p6---7p6-6h7p6-------------]
D[-------9-----------9-----------9-----------9~----------]
A[-------------------------------------------------------]
E[-------------------------------------------------------]
Tap to rate this tab
 
# A B C D E F G H I J K L M N O P Q R S T U V W X Y Z