Song name
# A B C D E F G H I J K L M N O P Q R S T U V W X Y Z

The Number 12 Looks Like You - Weekly Wars tab

Artist: The Number Twelve Looks Like You
Song: "The Weekly Wars"
Album: Mongrel

Intro

|-------------------------------------------------------------------------------------------------|
|-------------------------------------------------------------------------------------------------|
|--------------------------------------------------12----14----------12----14----------12----14---|
|-----------------------------------------10-10-10----10----10-10-10----10----10-10-10----10------|
|--7-----9---10-------9---10-------9---10---------------------------------------------------------|
|----7-7---7----7-7-0---7----7-7-0---7------------------------------------------------------------|

|-------------------------------------------------------------------------------------------------|
|-------------------------------------------------------------------------------------------------|
|--12----9-------12----9-------12----9-------12----9----------------------------------------------|
|-----12---9-9-9----12---9-9-9----12---9-9-9----12---9-9-9----------------------------------------|
|-------------------------------------------------------------------------------------------------|
|-------------------------------------------------------------------------------------------------|

This is more accurate than the other intro tab. Let me know if you want the whole song. 
- sfreeman@udel.edu
Tap to rate this tab
# A B C D E F G H I J K L M N O P Q R S T U V W X Y Z