Song name
# A B C D E F G H I J K L M N O P Q R S T U V W X Y Z

The Obsessed - Back To Zero tab

The Obsessed - Back to Zero
(from Lunar Womb)

In C#

Main riff starts like this

---------------------------------------------------------|
---------------------------------------------------------|
---------------------------------------------------------|
---------------------------------------------------------|
-2--2---2-5-----2--2---2-5---2-2---2-5-------------------|
-0--0---0-3-----0--0---0-3---0-0---0-3-------------------|


---------------------------------------------------------|
---------------------------------------------------------|
---------------------------------------------------------|
-7 po  5----------------------5^~~~----------------------|
-------------7 po--5------7------------------------------|
---------------------------------------------------------|



---------------------------------------------------------|
---------------------------------------------------------|
---------------------------------------------------------|
---------------------------------------------------------|
-2--2---2-5-----2--2---2-5---2-2---2-5-------------------|
-0--0---0-3-----0--0---0-3---0-0---0-3-------------------|


-----------------------------------------------|
-----------------------------------------------|
-5-8-5-----------------------------------------|
-----------7po5------5^~~----------------------|
-------------------7---------------------------|
-----------------------------------------------|


Then goes to:


----------------------------------------------------|
----------------------------------------------------|
-2-----5--5--4--------------------------------------|
-2-----5--5--4--------------------------------------|
-0-----3--3--2--------------------------------------|
----------------------------------------------------|


^^ This riff will  be sort of a prechorus at the beginning and ends of the chorus


Back to the first main/verse riff

Chorus riff:

-----------------------------------------------------------|
-----------------------------------------------------------|
-----------------------------------------------------------|
-----------------------------------------------------------|
-2--2--3---2--2--2--2--2--2--2-3---2--12----\\--9----------|
-0--0--1---0--0--0--3--0--0--0-1---0--10---\\---7----------|

^I'm not 100% on where that slide is but thats as close as I could get it for now

--------------------------------------------------------|
--------------------------------------------------------|
--------------------------------------------------------|
--------------------------------------7---//--9---------|
-2--2--3---2--2--2--2--2--2--2-3---2--5---//--7---------|
-0--0--1---0--0--0--3--0--0--0-1---0--------------------|



Then after the last Chorus it goes to the "I hope it rains..." part
over this little progression




--------------------------------------------------------------|
--------------------------------------------------------------|
--------------------------------------------------------------|
2-------5---------7--------9--10---9--10--9--10---------------|
2-------5---------7--------9--10---9--10--9--10---------------|
0-------3---------5--------7--8----7--8---7--8----------------|



Which continues under the solo, haven't gotten to tabbing the solo yet.
Tap to rate this tab
# A B C D E F G H I J K L M N O P Q R S T U V W X Y Z