Song name
# A B C D E F G H I J K L M N O P Q R S T U V W X Y Z

The Oh Hellos - I Have Made Mistakes tab

This is my first tab ever so please give me some feedback or corrections

Capo 6

The beat is always on the bass note.

Intro
e|----0------0------0------0------0------0------0------0------0------0------0------0----|
B|------1------1------1------1------1------1------1------1------1------1------1------1--|
G|--------------------------------------------------------------------------------------|
D|--3------3------3------3--------------------------------------------------------------|
A|------------------------------3------3------3------3------0------0------0------0------|
E|--------------------------------------------------------------------------------------|

e|----3------3------------------|
B|------1------1----3\5\3-1-----|
G|--0------0------0---------2p0-|
D|------------------------------|
A|------------------------------|
E|------------------------------|

e|----0------0------0------0------0------0------0------0------0------0------0------0----|
B|------1------1------1------1------1------1------1------1------1------1------1------1--|
G|-----------------------0--------------------------------------------------------------|
D|--3------3------3----------------------------------0----------------------------------|
A|------------------------------3------3------3------------0------0------0------0-------|
E|--------------------------------------------------------------------------------------|

Verses
e|----3------3------3------3------3------3--------|
B|------1------1------1------1------1------1------|
G|--0------0------0------0------0-----0-----------|
D|------------------------------------------------|
A|------------------------------------------------|
E|------------------------------------------------|
                                 I have made

e|----0------0------0------0------3------3------0------0------0------0------0------0----|
B|------1------1------1------1------1------1------1------1------1------1------1------1--|
G|------------------------------0------0------------------------------------------------|
D|--2------2------2------2--------------------2------2------3------3--------------------|
A|------------------------------------------------------------------------3------3------|
E|--------------------------------------------------------------------------------------|
    mistakes                    I have made    mistakes I   continue to   make them

e|----0------0------3------3------0------0------0------0------3------3------0------0----|
B|------1------1------1------1------1------1------1------1------1------1------1------1--|
G| ---------------0------0-----------------------------------0------0-------------------|
D|------------------------------2------2------2------2--------------------2------2------|
A|-3------3-----------------------------------------------------------------------------|
E| -------------------------------------------------------------------------------------|
             The promises I've made                      The promises I've made  I

e|---0------0------0------0------0------0-------3------3-------|
B|-----1------1------1------1------1------1-------1------1-----|
G|--------------------------------------------0------0---------|
D|-3------3----------------------------------------------------|
A| --------------3------3------3------3------------------------|
E|-------------------------------------------------------------|
   continue  to    break them                 All the doubts I've

e|----0------0------0------0------3------3------0------0------0------0------0------0----|
B|------1------1------1------1------1------1------1------1------1------1------1------1--|
G|------------------------------0------0------------------------------------------------|
D|--2------2------2------2--------------------2------2------3------3--------------------|
A|------------------------------------------------------------------------3------3------|
E|--------------------------------------------------------------------------------------|
     faced                   All the doubts I've faced    I continue to  face them

e|----0------0------3------3------0------0------0------0------3------3------0------0----|
B|------1------1------1------1------1------1------1------1------1------1------1------1--|
G| ---------------0------0-----------------------------------0------0-------------------|
D|------------------------------2------2------2------2--------------------2------2------|
A|-3------3-----------------------------------------------------------------------------|
E| -------------------------------------------------------------------------------------|
                But nothing is a waste                      nothing is a   waste if you

e|---0------0------0------0------0------0-------0------0------0------0-------|
B|-----1------1------1------1------1------1-------1------1------1------1-----|
G|---------------------------------------------------------------------------|
D|-3------3------------------------------------------------------------------|
A| --------------3------3------3------3-------3------3------3------3---------|
E|---------------------------------------------------------------------------|
     learn from it
Tap to rate this tab
# A B C D E F G H I J K L M N O P Q R S T U V W X Y Z