Song name
# A B C D E F G H I J K L M N O P Q R S T U V W X Y Z

The Oh Hellos - In Memoriam tab

This is my first tab. Hope you all like it.

Intro:
e|------------------------------------------------------------------|
B|----------3------3-------3-------3-------3-------3-------3-------3|
G|--------2-------2-------2-------2-------2-------2-------2-------2-| x4
D|-----0-------2h4-----0-------2h4-------------2h4-------------2p0--|
A|-------------------------------------2---------------2------------|
E|------------------------------------------------------------------|

e|-------------------------------------------------------------------|
B|----------3-------3-------3-------3-------3-------3-------3-------3|
G|--------2-------2-------2-------2-------2-------2-------2-------2--|
D|-----0-------2h4-----0-------2h4-------------0h2-------------0h2---|
A|-------------------------------------0---------------0-------------|
E|-------------------------------------------------------------------|

e|------------------------------------------------------------------|
B|-------3-------3-------3-------3-------3-------3-------3-------3--|
G|-----2-------2-------2-------2-------2-------2-------2-------2----|
D|----------2h4-------------2h4-------------2h4-----2p0-----2h4-----|
A|--2---------------2-----------------------------------------------|
E|----------------------------------3-------------------------------|

e|----------------------------------------------------------------|
B|-----3-------3-------3-------3-------3-------3-------3-------3--|
G|---2-------2-------2-------2-------2-------2-------2-------2----| 
D|--------2h4-------------2h4-------------2h4-----2p0-----2h4-----|
A|2---------------2-----------------------------------------------|
E|--------------------------------3-------------------------------|

e|--------------------------------------------------------------|
B|-----3-------3-------3-------3-------3-------3-------3-------3|
G|---2-------2-------2-------2-------2-------2-------2-------2--|
D|--------2h4-------------2h4-------------0h2-------------0h2---|
A|2---------------2---------------0---------------0-------------|
E|--------------------------------------------------------------|

The rest of the song is this repeated a few times
Tap to rate this tab
 
# A B C D E F G H I J K L M N O P Q R S T U V W X Y Z