Song name
# A B C D E F G H I J K L M N O P Q R S T U V W X Y Z

The Ohio State University Marching Band - Campus Chimes And Carmen Ohio tab

\\\Campus Chimes and Carmen Ohio
///Written by Fred Cornell in 1902, on a train ride home, following a loss to
\\\the Team Up North
///As performed by The Best Damn Band in the Land
\\\Tabbed by Jordan Bertke (bertke.67@buckeyemail.osu.edu)

E|--------------------------------------------------------|
B|--------------------------------------------------------|
G|--0~--4~--2~---------------2~--4~--0~-------------------|
D|--------------0~-------0~-------------------------------|
A|--------------------------------------------------------|
E|--------------------------------------------------------|

E|--------------------------------------------------------|
B|--------------------------------------------------------|
G|--4~--0~--2~---------------2~--4~--0~-------------------|
D|--------------0~-------0~-------------------------------|
A|--------------------------------------------------------|
E|--------------------------------------------------------|

E|--------------------------------------------------------|
B|--------------------------------------------------------|
G|--------------------------------------------------------|
D|--------------------------------------------------------|
A|--3~-----3~-----3~--------------------------------------|
E|--------------------------------------------------------|

E|--------------------------------------------------------|
B|--------------------------------------------------------|
G|-----------------------------------6-----7--4-----------|
D|--2/7--7--7--6--7--4--7---------------7--------7--6--7--|
A|-------------------------7------7-----------------------|
E|--------------------------------------------------------|
  Oh come, let's sing Ohio's Praise; and songs to Alma Mater Raise.

E|------------------------------------------------|
B|------------------------------------------------|
G|---------------------------6-----7--4-----------|
D|--7--7--6--7--4--7------------7--------7--6--7--|
A|--------------------7---------------------------|
E|------------------------------------------------|
  While our hearts rebounding thrill; with joy, which death alone can still.

E|---------------------------------------------------|
B|---------------------------------------------------|
G|--6--6--4--6--7--6--4------6--6--4--6--7--6--4-----|
D|---------------------------------------------------|
A|---------------------------------------------------|
E|---------------------------------------------------|
  Summer's heat or winter's cold; the seasons pass, the years will roll.

E|-------------------------------------------------------------|
B|-------------------------------------------------------------|
G|------------------------------6-----7--4---------------------|
D|--7--7--6--7--4--7---------------7--------------7----6----7--|
A|--------------------7------7---------------------------------|
E|-------------------------------------------------------------|
  Time and change will surely show; how firm thy friendship, O-HI-O!

GO BUCKS!
Tap to rate this tab
 
# A B C D E F G H I J K L M N O P Q R S T U V W X Y Z