Song name
# A B C D E F G H I J K L M N O P Q R S T U V W X Y Z

The Old Firm Casuals - We Want The Lions Share tab

THE OLD FIRM CASUALS - WE WANT THE LIONS SHARE
WE WANT THE LIONS SHARE 7'': 2011
TABBED BY: JÖSH DRUMMER
TUNING: STANDARD E.A.D.G.



INTRO: X4

E:|-------------------|
B:|-------------------|
G:|-------------3-333-|
D:|2-22-5-55-2-23-333-|
A:|2-22-5-55-2-21-111-|
E:|0-00-3-33-0-0------|



VERSE: X4

E:|-------------------|
B:|-------------------|
G:|-------------3-333-|
D:|2-22-5-55-2-23-333-|
A:|2-22-5-55-2-21-111-|
E:|0-00-3-33-0-0------|



CHORUS: X1

E:|-------------------------------------------|
B:|-------------------------------------------|
G:|2-2-2224-44-4444-2-2-2224-44-4444-2-2-2224-|
D:|2-2-2224-44-4444-2-2-2224-44-4444-2-2-2224-|
A:|0-0-0002-22-2222-0-0-0002-22-2222-0-0-0002-|
E:|-------------------------------------------|



GAP: X2

E:|-------------------|
B:|-------------------|
G:|-------------3-333-|
D:|2-22-5-55-2-23-333-|
A:|2-22-5-55-2-21-111-|
E:|0-00-3-33-0-0------|



VERSE: X4

E:|-------------------|
B:|-------------------|
G:|-------------3-333-|
D:|2-22-5-55-2-23-333-|
A:|2-22-5-55-2-21-111-|
E:|0-00-3-33-0-0------|



CHORUS: X1

E:|-------------------------------------------|
B:|-------------------------------------------|
G:|2-2-2224-44-4444-2-2-2224-44-4444-2-2-2224-|
D:|2-2-2224-44-4444-2-2-2224-44-4444-2-2-2224-|
A:|0-0-0002-22-2222-0-0-0002-22-2222-0-0-0002-|
E:|-------------------------------------------|



GAP: X2

E:|-------------------|
B:|-------------------|
G:|-------------3-333-|
D:|2-22-5-55-2-23-333-|
A:|2-22-5-55-2-21-111-|
E:|0-00-3-33-0-0------|



GUITAR SOLO: X4

E:|------------------|
B:|------------------|
G:|--------77779-999-|
D:|----9999----------|
A:|7777--------------|
E:|------------------|


GUITAR SOLO: RHYTHM GUITAR: X4

E:|-------------------|
B:|-------------------|
G:|-------------3-333-|
D:|2-22-5-55-2-23-333-|
A:|2-22-5-55-2-21-111-|
E:|0-00-3-33-0-0------|



CHORUS: X1

E:|-------------------------------------------|
B:|-------------------------------------------|
G:|2-2-2224-44-4444-2-2-2224-44-4444-2-2-2224-|
D:|2-2-2224-44-4444-2-2-2224-44-4444-2-2-2224-|
A:|0-0-0002-22-2222-0-0-0002-22-2222-0-0-0002-|
E:|-------------------------------------------|



GAP: X2

E:|-------------------|
B:|-------------------|
G:|-------------3-333-|
D:|2-22-5-55-2-23-333-|
A:|2-22-5-55-2-21-111-|
E:|0-00-3-33-0-0------|



ENDING: X4

E:|-------------------|
B:|-------------------|
G:|-------------3-333-|
D:|2-22-5-55-2-23-333-|
A:|2-22-5-55-2-21-111-|
E:|0-00-3-33-0-0------|



GUITAR SOLO: X1

E:|----------------------------------------------------------------------|
B:|----------------------------------------------------------------------|
G:|--------77779-999---------77779-999--------7779-999-998877------------|
D:|----9999--------------9999-------------9999---------------998877------|
A:|7777--------------7777-------------7777-------------------------99887-|
E:|----------------------------------------------------------------------|


GUITAR SOLO: RHYTHM GUITAR: X4

E:|-------------------|
B:|-------------------|
G:|-------------3-333-|
D:|2-22-5-55-2-23-333-|
A:|2-22-5-55-2-21-111-|
E:|0-00-3-33-0-0------|



IF PLAYIN RHYTHM GUITAR THEN END ON:

E:|--|
B:|--|
G:|--|
D:|2-|
A:|2-|
E:|0-|



STRUCTURE:

INTRO: X4
VERSE: X4
CHORUS: X4
GAP: X2
VERSE: X4
CHORUS: X4
GAP: X2
GUITAR SOLO: X4
CHORUS: X4
GAP: X2
ENDING: X4
GUITAR SOLO: X1



OI! OI! ENJOY! NICE N EASY THIS ONE, GREAT RHYTHM N PACE. I ADDED IN THE RHYTHM GUITAR 
BITS SHOULD YOU FIND THE GUITAR SOLO HARD, PRACTICE MAKES PERFECT ANYWAYS YOU SHOULD HAVE 
FUN WITH THIS ONE THATS FOR FUCKIN SURE. STAY FREE.
Tap to rate this tab
 
# A B C D E F G H I J K L M N O P Q R S T U V W X Y Z