Song name
# A B C D E F G H I J K L M N O P Q R S T U V W X Y Z

The One Up Downstairs - Franco The Bull tab

Este es una arreglo que hize para poder tocar esta cancion con una guitarra. Dejo 
un enlace para un video en YouTube de como la toco en mi guitarra acústica espero 
pueda servirles/ This is an arrangment i made to play this song with one guitar. 
There's a link for a YouTube video of how i play it with my acoustic guitar i hope it helps:

http://www.youtube.com/watch?v=wspOCzqryho


Afinacion/Tuning: DADGDAD Capo 2°Traste/Fret

 Riff 1 x2
D|--0-------0-0-------------------0-0-0-0-0-0-0-0----------------------------|
A|--0-------0-0-------------------0-0-0-0-0-0-0-0----------------------------|
G|--2-------2-4-------------------2-4-7-4-2-4-4-2----------------------------|
D|--0-------0-0-------------------0-0-0-0-0-0-0-0----------------------------|
A|--0-------0-2-------------------0-2-5-2-0-2-2-0----------------------------|
D|--0-0-0-0-0-0-0-0-0-0-0-0-0-0-0-0-0-0-0-0-0-0-0-0-0-0-0-0-0-0-0-0----------|

 Riff 2 x2                                                 Sólo la primera vez/Just the first time:
D|-------------------------------------------------------------|---------0------------------------|
A|-------------------------------------------------------------|--4----------4--------------------|
G|-------------------------------------------------------------|-----2---------2------------------|
D|--2-------2-4-------------------2-4-7-4-2-4-2-0--------------|-0-----0--------------------------|
A|--0-------0-2-------------------0-2-5-2-0-2-2-0--------------|----------------------------------|
D|--0-0-0-0-0-0-0-0-0-0-0-0-0-0-0-0-0-0-0-0-0-0-0-0-0-0-0-0-0-0|---0-------0----------------------|

 Riff 3 x4
D|-0-------0-0-----------------------0---------|
A|-0-------0-2---------------------4---4-------|
G|-2-------2-4-------------------2-------2-----|
D|-0-------0-0-------------------0-------------|
A|-x-------x-x-------------------x-------------|
D|-4-4-4-4-4-4-4-4-4-4-4-4-4-4-4-4-------------|

Riff 1 x2

Riff 2 x 2 Sin el pequeño arreglo / without the little arrangment

Riff 3 x 4

Riff 1 x 2


D|----------------------------------------------------------------------------------2/4----(14)-|
A|----------------------------------------------------------------------------------------------|
G|-----------------------------4p2----------------4p2-----2-----2--4p2------2-------------------|
D|----2----2h4---2p0----2h4-2-------2h4-2p0-2h4-2-----2h4---2h4---------2h4-----2h4-2/4---------|
A|----------------------------------------------------------------------------------------------|
D|----0-0--0--0--0--0-0-0---0--0--0-0---0---0---0-0---0---0-0---0--0--0-0---0-0-0---0-----------|

For any comments and doubts/Por cualquier comentario o duda: 
www.facebook.com/osnegrete
Tap to rate this tab
# A B C D E F G H I J K L M N O P Q R S T U V W X Y Z