Song name
# A B C D E F G H I J K L M N O P Q R S T U V W X Y Z

The Open Mind - Magic Potion tab

http://en.wikipedia.org/wiki/The_Open_Mind_%28band%29

It's in Em and uses power chords/notes in variations of E-F#-G-A so you can
play around with the rest of it (I'll get to it eventually).

Rhythm Guitar Intro Riff:
    
e|--------------------------------------------------------------------------|
B|--------------------------------------------------------------------------|
G|--------------------------------------------------------------------------|
D|--2---2-2--2---5555-4-2----2---2-2--2---5555-4-2--------------------------|
A|--2---2-2------5555-4-2----2---2-2------5555-4-2--------------------------|
E|--0---0-0------3333-2-0----0---0-0------3333-2-0--------------------------|

e|--------------------------------------------------------------------------|
B|--------------------------------------------------------------------------|
G|--------------------------------------------------------------------------|
D|--------------------------------------------------------------------------|
A|--------------------------------------------------------------------------|
E|--0----0------3-3-3-2-0----0----0------3-3-3-2-0----0----0------3-3-3-2-0-|

e|--------------------------------------------------------------------------|
B|--------------------------------------------------------------------------|
G|--------------------------------------------------------------------------|
D|--------------------------------------------------------------------------|
A|--------------------------------------------------------------------------|
E|--0----0------3-3-3-2-0----0----0------3-3-3--0---------------------------|

Lead Guitar Intro (starts after the power chords):

e|--------------------------------------------------------------------------|
B|--------------------------------------------------------------------------|
G|--9----9------12/14-12\11\9----9----9------12/14\12\11\9------------------|
D|--------------------------------------------------------------------------|
A|--------------------------------------------------------------------------|
E|--------------------------------------------------------------------------|

e|--------------------------------------------------------------------------|
B|--------------------------------------------------------------------------|
G|--9----9------9/11/12/14\12\11----9----9-11-9-----------------------------|
D|--------------------------------------------------------------------------|
A|--------------------------------------------------------------------------|
E|--------------------------------------------------------------------------|


************************************

| /   slide up
| \   slide down
| h   hammer-on
| p   pull-off
| ~   vibrato
| +   harmonic
| x   Mute note
| b   Bend
| pb  Pre-bend
| br  Bend release
| pbr Pre-bend release
| brb Bend release bend

************************************
Tap to rate this tab
# A B C D E F G H I J K L M N O P Q R S T U V W X Y Z