Song name
# A B C D E F G H I J K L M N O P Q R S T U V W X Y Z

The Operation Md - Sayonara tab

-------------------------------------------------------------------------------
			     SAYONARA - The Operation MD
-------------------------------------------------------------------------------
Tabbed by: 24Frets
Email: x4jaxson@aim.com

Tuning: Dropped D

This is an amazing song & a great band. I dont know why anyone hasnt tabbed this yet. I 
it my best shot, Im gunna go with about 80% right. Constructive criticism is welcomed.


UPDATES --
-Fixed the pre chorus
-Fixed the solo
-Fixed the bridge

  Intro/Chorus x4
e|---------------------------------------------------------------------------|
B|------------------------44444\22222----------------------------------------|
G|------------------------55555\33333----------------------------------------|
D|-5-3333-55-3333-55-3333-55555\33333----------------------------------------|
A|-5-3333-55-3333-55-3333-33333\11111----------------------------------------|
D|-5-3333-55-3333-55-3333----------------------------------------------------|

  Verse
e|---------------------------------------------------------------------------|
B|---------------------------------------------------------------------------|
G|---------------------------------------------------------------------------|
D|-5~-8~-10~-5~--------------------------------------------------------------|
A|-5~-8~-10~-5~--------------------------------------------------------------|
D|-5~-8~-10~-5~--------------------------------------------------------------|


Pre Chorus REVISED (1000% right)
e|---------------------------------------------------------------------------|
B|---------------------------------------------------------------------------|
G|---------------------------------------------------------------------------|
D|-55555555/88888888/1010101010101010/55555555-------------------------------|
A|-55555555/88888888/1010101010101010/55555555-------------------------------|
D|-55555555/88888888/1010101010101010/55555555-------------------------------|

  Intro/Chorus
  Verse

Solo REVISED (98% right)
e-------------------------------------------------|
B-33-55-66-88-66-55-33-11-33-11-33-11-33-11-33-11-|
G-------------------------------------------------|
D-------------------------------------------------|
A-------------------------------------------------|
E-------------------------------------------------|

solo cont'd
e------------------------------------------------------|
B-33-55-66-88-66-55-33-11-33-55-66-88-1010-1313-151515-|
G------------------------------------------------------|
D------------------------------------------------------|
A------------------------------------------------------|
E------------------------------------------------------|

Solo cont'd
e|---------------------------------------------------------------------------|
B|---------------------------------------------------------------------------|
G|-77-55-77-99-77-99-77-99-1010-1212-1414-1616^^-----------------------------|
D|---------------------------------------------------------------------------|
A|---------------------------------------------------------------------------|
D|---------------------------------------------------------------------------|

bass part

Chorus till the end.
End on
e|---|
B|---|
G|---|
D|-5-|
A|-5-|
D|-5-|


| /  slide up
| \  slide down
| ^  bend up
| h  hammer-on
| p  pull-off
| ~  vibrato
| +  harmonic
| x  Mute note
===============================================================================
Tap to rate this tab
 
# A B C D E F G H I J K L M N O P Q R S T U V W X Y Z