Song name
# A B C D E F G H I J K L M N O P Q R S T U V W X Y Z

The Operation Md - Someone Like You tab

-----------------------------------------------------------------------------
                    Someone Like You - The Operation MD
-----------------------------------------------------------------------------
Tabbed by: Timmeh22
E-mail: Pieman457@hotmail.com

Tuning: Standard

Intro:
e|-xxx-----x-x-x-x-----x-x-x-x-0~-|
B|-xxx-----x-x-x-x-----x-x-x-x-0~-|
G|-xxx-----x-x-x-x-4-4-x-x-x-x-x~-|
D|-xxx-5-5-x-x-x-x-4-4-x-x-x-x-2~-|
A|-xxx-5-5-x-x-x-x-2-2-x-x-x-x-2~-|
E|-xxx-3-3-x-x-x-x-----x-x-x-x-0~-|

Verse:
e|-xxx-----------------------------------------------------------------|
B|-xxx-----------------------------------------------------------------|
G|-xxx---------77-7777---------55-5555---------44-4444-----------------|
D|-xxx-55-5555-77-7777-22-2222-55-5555-55-5555-44-4444-22-2222-22-2222-| x2
A|-xxx-55-5555-55-5555-22-2222-33-3333-55-5555-22-2222-22-2222-22-2222-|
E|-xxx-33-3333---------00-0000---------33-3333---------00-0000-00-0000-|

On the 2nd time, repeatedly strum the final chord

Chorus:
e|-----------------------------------------------------------------|
B|-----------------------------------------------------------------|
G|---------77-7777-22-2222-44-4444---------77-7777-22-2222-44-4444-|
D|-55-5555-77-7777-22-2222-44-4444-55-5555-77-7777-22-2222-44-4444-|
A|-55-5555-55-5555-00-0000-22-2222-55-5555-55-5555-00-0000-22-2222-|
E|-33-3333-------------------------33-3333-------------------------|

Bridge:
e|----xxxx----xxxx----xxxx----xxxx-|
B|----xxxx----xxxx----xxxx----xxxx-|
G|----xxxx-77-xxxx-22-xxxx-44-xxxx-|
D|-55-xxxx-77-xxxx-22-xxxx-44-xxxx-|
A|-55-xxxx-55-xxxx-00-xxxx-22-xxxx-|
E|-33-xxxx----xxxx----xxxx----xxxx-|

Repeat verse (without muted notes)
Repeat chorus
Bridge (x2)

Middle 8 (1)
e|-------------------------------------------------------------|
B|-------------------------------------------------------------|
G|---------77-7777-44-4444---------x3--------------------4~----|
D|-55-5555-77-7777-44-4444-22-2222-then-55-5555-55-55555-4~-2~-|
A|-55-5555-55-5555-22-2222-22-2222------55-5555-55-55555-2~-2~-|
E|-33-3333-----------------00-0000------33-3333-------------0~-|

Middle 8 (2)
e|------------------------------------|
B|------------------------------------|
G|----7~-4~----x3------7~-4~----------|
D|-5~-7~-4~-2~-then-5~-7~-4~-22222222-|
A|-5~-5~-2~-2~------5~-5~-2~-22222222-|
E|-3~-------0~------3~-------00000000-|

Chorus x2

Outro
e|--------------------------------------------------------------|
B|--------------------------------------------------------------|
G|---------44-4444-------------------------44-4444--------------|
D|-33-3333-44-4444-22-2222-22-2222-33-3333-44-4444-22-222-222-2-|
A|-33-3333-22-2222-22-2222-22-2222-33-3333-22-2222-22-222-222-2-|
E|-55-5555---------00-0000-00-0000-55-5555---------00-000-000-0-|

Key:

Mute string - x
let ring    - ~
Tap to rate this tab
 
# A B C D E F G H I J K L M N O P Q R S T U V W X Y Z