Song name
# A B C D E F G H I J K L M N O P Q R S T U V W X Y Z

The Opposites - Broodje Bapao tab

Intro:(High Riff)

Don't let the notes ring. Half Muted

E --19--19--19--19--17--17--17--17--14--14--14--14--15--15--15--15---------|
B ----19--19--19--19--17--17--17--17--14--14--14--14--15--15--15--15-------|
G -------------------------------------------------------------------------|
D ------------------------------------------------------------------   x16-|
A -------------------------------------------------------------------------|
E -------------------------------------------------------------------------|

Intro: (Low Riff)

E ------------------------------------------------------------------|
B ------------------------------------------------------------------|
G ------------------------------------------------------------------|   x16
D ------------------------------------------------------------------|
A -9-9-9-9--7-7-7-7--4-4-4-4--5-5-5-5-------------------------------|
E -7-7-7-7--5-5-5-5--2-2-2-2--3-3-3-3-------------------------------|
Tap to rate this tab
# A B C D E F G H I J K L M N O P Q R S T U V W X Y Z