Song name
# A B C D E F G H I J K L M N O P Q R S T U V W X Y Z

The Opposites - Je Kan Het Niet tab

-------------------------------------------------------------------------------
                             JE KAN HET NIET - The Opposites
-------------------------------------------------------------------------------
Tabbed by: Santosdelmingo
E-mail: timbodebink@hotmail.com

Tuning: Standard

Comment: I haven't spotted too many tabs for this song yet (none, to be exact), 
so I thought that was a good excuse to share my version. 

In case you have any comments or additions on this tab, please email me. 
Thanks.
 
Verse
   Dm7       F           B       C
e|----------------------------------------------------------------------|
B|-5h6---------------------------------5--------------------------------|
G|-----5-------------5-------0-------5----------------------------------|
D|-------------5-5h7-------3-------5------------------------------------|
A|---------5-8-----------1-------3--------------------------------------|
E|----------------------------------------------------------------------|

Prechorus (try to vary your speed in this part, and not playing exactly on the beat)
   Bb               C              Bb               C
e|---------1--------------3----------------1----------------------------|
B|-------3---3--------------5------------3---3--------------------------|
G|-----3-------3--------5-----5--------3-------3------------------------|
D|---3----------------5--------------3----------------------------------|
A|-1----------------3--------------1----------------3-------------------|
E|----------------------------------------------------------------------|

Chorus
   Dm7                C           C           Dm7
e|-----------8---------------3-----------3------------------------------|
B|---5h6-------6---------------5-----------5---------6-6p5--------------|
G|-------5-------5---------5-----------5-----------5-------5------------|
D|---------7-------7-----5-----------5-----------7-----------7----------|
A|-5-------------------3-----------3-----------5------------------------|
E|----------------------------------------------------------------------|

Bridge
   Gm              C           F           Dm7
e|---6-----6------------------------------------------------------------|
B|-----8-----8-----------8-----------8-------------5-5h6----------------|
G|-------7-----7-------5---5-------5---5---------5-------5--------------|
D|-5-----------------5-----------5-------------7-----------7------------|
A|-----------------------------8-----------5-5--------------------------|
E|-----------------8----------------------------------------------------|

   Gm          F          C
e|-------6-----------1--------------------------------------------------|
B|-----3---3-------1---1---------1--------------------------------------|
G|---3-----------2-------------0----------------------------------------|
D|-5-----------3-------------2------------------------------------------|
A|------------------------3---------------------------------------------|
E|----------------------------------------------------------------------|


************************************

| /   slide up
| \   slide down
| h   hammer-on
| p   pull-off
| ~   vibrato
| +   harmonic
| x   Mute note
| b   Bend
| pb  Pre-bend
| br  Bend release
| pbr Pre-bend release
| brb Bend release bend

************************************
Tap to rate this tab
# A B C D E F G H I J K L M N O P Q R S T U V W X Y Z