Song name
# A B C D E F G H I J K L M N O P Q R S T U V W X Y Z

The Organ - Basement Band tab

The Organ - Basement Band


Verse

E ------------------7------------------9------7-------7-------------10---9---------------------|
B ---------------------7------7-------------------7------7------------------10--10---------7---|
G -------7----------------7--------------------------------------------------------------9-----|
D ----9-----9----------------------------------------------------------------------------------|
A ---------------------------------------------------------------------------------------------|
E ---------------------------------------------------------------------------------------------|


Chorus

E -----------------------------------------------------------------------------------------------|
B -----10--10----------------------------------7--7----------7--7--------------------------------|
G -----------------7--7----6--6---7--7--------------6--6----------6--6---6--6--7--7---6--6--7--7-|
D -----------------------------------------------------------------------------------------------|
A -----------------------------------------------------------------------------------------------|
E -----------------------------------------------------------------------------------------------|

E ---------------------------------------------------------------------------------|
B ----------------------------7------------7------------------------------------7--|
G -6-6-7-7--6-6-7-7---7--7--6-------7--7--6----------6-6-6-6---6-6-6-6--7--7--6----|
D ---------------------------------------------------------------------------------|
A ---------------------------------------------------------------------------------|
E ---------------------------------------------------------------------------------|


Chords after the second chorus:

Bm              F#m             Em              A
 7               9               7              5
 7              10               8              5
 7              11               9              6
 9              11               9              7
 9               9               7              7
 7               x               x              5

Ringing sequence: Bm  F#m  Em  Bm  Bm  A  Em  x2
Strummed sequence: Bm Em Bm A  x4

Outro

E -----------------7---7----------9-------------------------------------------------------------|
B ---------7--7-----------7-----------7--7-----------------10------------7----------------------|
G ---------------------------------------------------9--9------------9--9-----------------------|
D ----------------------------------------------------------------------------------------------|
A ----------------------------------------------------------------------------------------------|
E ----------------------------------------------------------------------------------------------|
Tap to rate this tab
 
# A B C D E F G H I J K L M N O P Q R S T U V W X Y Z