Song name
# A B C D E F G H I J K L M N O P Q R S T U V W X Y Z

The Organ - A Sudden Death tab

A Sudden Death
by The Organ
tabbed by manOutOfTime

*Intro & Verse Riff* x6
---6---------------------------10------8------10------8------|---------------|
-8---88/11-88-8h10-10-10-1010----10--10-----10--10--10-----10|---------------|
-----------------------------------10-----10------10-----10--|---------------|
-------------------------------------------------------------|---------------|
-------------------------------------------------------------|---------------|
-------------------------------------------------------------|---------------|
Gm              F              Dm

Gm        F          Dm
day after day , they go
Gm         F           Dm
they go to gain just a little more control
Gm       F               Dm
and when they took yours away
Gm         F
i couldnít sleep at all
  Dm
i lay in bed for days

*Chorus Riff* x4

-10------10------11------11------10------10------10-------|-----------------|
---10--10--10--10--10--10--10--10--10--10--10--10--10--10-|-----------------|
-----10------10------10------10------10------10------10---|-----------------|
----------------------------------------------------------|-----------------|
----------------------------------------------------------|-----------------|
----------------------------------------------------------|-----------------|

Bb F            Dm
i died a sudden death
Bb F            Dm
i made an awful mess
Bb F             Dm
i didnít stand a chance
Bb F             Dm
i didnít stand a chance

*Intro & Verse Riff* x4

Gm      F                Dm
Ďcause when we where our best
Gm           F             Dm
i could care less if people bred themselves to death
Gm      F                Dm
oh, but now that you are gone
Gm     F         Dm
i just know that everything is wrong

*Chorus Riff* x4
Bb F            Dm
i died a sudden death
Bb F            Dm
i made an awful mess
Bb F             Dm
i didnít stand a chance
Bb F             Dm
i didnít stand a chance

*Middle Riff* x4
------10--11--10------10-----------13-----------13-------|-------------------|
-11-----11--11-----10------10---10------10---10-------10-|-------------------|
---------------------------------------------------------|-------------------|
---------------------------------------------------------|-------------------|
---------------------------------------------------------|-------------------|
---------------------------------------------------------|-------------------|
 Gm                F            Dm
donít leave me alone nowÖ
donít leave me alone nowÖ
No No No

*Chorus Riff* x4
Bb F            Dm
i died a sudden death
Bb F            Dm
i made an awful mess
Bb F             Dm
i didnít stand a chance
Bb F             Dm
i didnít stand a chance

*Middle Riff* x2
Gm                F            Dm
Gm                F            Dm
Dm
Tap to rate this tab
 
# A B C D E F G H I J K L M N O P Q R S T U V W X Y Z