Song name
# A B C D E F G H I J K L M N O P Q R S T U V W X Y Z

The Organ - No One Has Ever Looked So Dead tab

The Organ
No One Has Ever Looked So Dead
tabbed by manOutOfTime

*Verse riff* x2
-1-----------1----------1-------------------------|--------------------------|
---1-----------1----------1-----------------------|--------------------------|
-----2/5-5-------2/5-5------2/5-55-/12-1212-14-14-|--------------------------|
--------------------------------------------------|--------------------------|
--------------------------------------------------|--------------------------|
--------------------------------------------------|--------------------------|
F            C          F           C

*Verse riff* x2
F         C                F       C
It really shook you when i said
F           C              F        C
ďno one has ever looked so deadĒ

*middle riff* x4
-5------------------------------|--------------------------------------------|
---55-6-5-6-5-3-5-3-5-1-3-1-3-1-|--------------------------------------------|
--------------------------------|--------------------------------------------|
--------------------------------|--------------------------------------------|
--------------------------------|--------------------------------------------|
--------------------------------|--------------------------------------------|
Am            C

           Am C      Am                C
well, itís o--ver and i canít go there any longer

*verse riff*x2
F         C                F       C
and in the backseat of your car
F         C                F       C
you showed me every single star
F         C                F       C
and how the zenith and the sounds
F         C                F       C
change in every single town

*Middle riff* x4

           Am C       Am               C
well, itís o--ver and i canít go there any longer

*verse riff*x2

F
Tap to rate this tab
 
# A B C D E F G H I J K L M N O P Q R S T U V W X Y Z