Song name
# A B C D E F G H I J K L M N O P Q R S T U V W X Y Z

The Organ - Memorize The City tab

The Organ
Memorize The City
tabbed by manOutOfTime

Intro & Verse Riff:
-3-3-3-3-2-0-0-0-x-7-7-7-x-7-7-7---------------------------------------------|
-1-1-1-1-1-1-1-1-108-8-8-108-8-8---------------------------------------------|
-0-0-0-0-0-0-0-0-7-9-9-9-7-9-9-9---------------------------------------------|
-2-2-2-2-2-2-2-2-9-9-9-9-9-9-9-9---------------------------------------------|
-3-3-3-3-3-3-3-3-7-7-7-7-7-7-7-7---------------------------------------------|
-----------------------------------------------------------------------------|
 C               Em

C            Em				      C
Oh, darkness filled the sky as pools of water filled your eyes
		           Em
They sparkled like phosphorescence in the bay
             C
Although our lips barely touched
       Em
I have never felt so much
        C                            Em
And Iíd really like to feel that way again
Oh , oh , when ?

*Chorus  Riff*
-5-5-7-8------8-7------------------------------------------------------------|
----------5-5-------5-5---5---8-8-10--10-------------------------------------|
------------------------7-----9-9-9---9--------------------------------------|
-----------------------------------------------------------------------------|
-----------------------------------------------------------------------------|
-----------------------------------------------------------------------------|

Am     C                       G            D
I walk through the streets and memorize the city
Am     C                       G            D
I count every light until i reach the shore
Am     C                       G            D
Sometimes i close my eyes and youíre not very pretty
Am     C                       G            D
Sometimes i canít believe Iíve had those thoughts
Before

   C                                  Em
We pulled a boat down to the dock and stole two steady oars
  C                              Em
I pushed you off into the dark: acrisius favours
         C
And from above the great abyss
          Em                            C
You threw pennies in and wished for the feeling of wanting
        Em
Nothing more

Middle chords
-12------12------------------------------------------------------------------|
-10------10------------------------------------------------------------------|
-12-------9------------------------------------------------------------------|
-----------------------------------------------------------------------------|
-----------------------------------------------------------------------------|
-----------------------------------------------------------------------------|
8 bars

*Chorus*
Am     C                       G            D
Am     C                       G            D
Am     C                       G            D
Am     C                       G            D

*Outro solo*
Sometimes i close my eyes
And hope that i can keep away all the darkened skies

----8-7----------8-7------8-7------8-7---------8-7---------------------------|
-10-----10101010-----------------------1010-10-----6-7777-7777--8888-8888----|
--------9-9-9-9------9999-----9999-------------------------------------------|
-----------------------------------------------------------------------------|
-----------------------------------------------------------------------------|
-----------------------------------------------------------------------------|

-----------------------------------------------------------------------------|
-10101010-10101010-8---8---8--7---7---7--8---8---8---------------------------|
-------------------999-999-99-999-999-99-999-999-99--------------------------|
-----------------------------------------------------------------------------|
-----------------------------------------------------------------------------|
-----------------------------------------------------------------------------|
Tap to rate this tab
# A B C D E F G H I J K L M N O P Q R S T U V W X Y Z