Guitaretab - guitar tabs
Song name
# A B C D E F G H I J K L M N O P Q R S T U V W X Y Z

The Organ - Steven Smith tab

Intro Organ (arranged for guitar) 
    Gm               Dm                D#                Dm    
e|-----------------|-----------------|-----------------|-----------------|r
B|-8---8---8---8---|-6---6---6---6---|-8---8---8---8---|-6---6---6---6---|e
G|---7---7---7---7-|---7---7---7---7-|---8---8---8---8-|---7---7---7---7-|p
D|-----------------|-----------------|-----------------|-----------------|e
A|-----------------|-----------------|-----------------|-----------------|a
E|-----------------|-----------------|-----------------|-----------------|t


Guitar  0:22
e|--6-5-6-8--|--6-5-6-8--|--6-5-6-8--|--6-5-----|-------6-|-------6-|
B|-----------|-----------|-----------|------6---|-8-6-8---|-8-6-8---|
G|-----------|-----------|-----------|----------|---------|---------|
D|-----------|-----------|-----------|----------|---------|---------|
A|-----------|-----------|-----------|----------|---------|---------|
E|-----------|-----------|-----------|----------|---------|---------|
[ Tab from: http://www.guitaretab.com/t/the-organ/60605.html ]
e|-------6-|--8---10-|
B|-8-6-8---|---------|
G|---------|---------|
D|---------|---------|
A|---------|---------|
E|---------|---------|


Chorus x4  0:36
    Gm      Bb      Eb
e|-------|-------|-------|-------|
B|-------|-------|--8-8--|--6-6--|
G|--3-3--|--7-7--|--8-8--|--7-7--|
D|--5-5--|--8-8--|--8-8--|--7-7--|
A|--5-5--|--8-8--|--6-6--|--5-5--|
E|--3-3--|--6-6--|-------|-------|


Repeat Guitar Part and Chorus


Outro  1:49
e|-666-555-888-666-|-666-555-101010-101010-|-666-555-888-666-|
B|-----------------|-----------------------|-----------------|
G|-----------------|-----------------------|-----------------|
D|-----------------|-----------------------|-----------------|
A|-----------------|-----------------------|-----------------|
E|-----------------|-----------------------|-----------------|

e|-666-55-101010101010---|
B|-----------------------|
G|-----------------------|
D|-----------------------|
A|-----------------------|
E|-----------------------|
Related for Steven Smith tab