Song name
# A B C D E F G H I J K L M N O P Q R S T U V W X Y Z

The Organ - No-one Ever Looked So Dead tab

---------------------------------------------------------------------------
	The Organ - No-one Has Ever Looked So Dead
---------------------------------------------------------------------------

Band: The Organ
Song: No-one Has Ever Looked So Dead
Album: Grab That Gun


Tabbed by:Jen
Email:jen2805@hotmail.com

Main Riff Throughout the song

Tuning: Standard

Intro (played throught the song)

e|-1----1----1----------------5-5-5-5-------------------------------------|
B|-1----1----1---------8-8-8-8--------------------------------------------|
G|--2h5--2h5--2h5---5-5---------------------------------------------------|
D|------------------------------------------------------------------------|
A|------------------------------------------------------------------------|
E|------------------------------------------------------------------------|


Solo:

e|---5-5------------------------------------------------------------------|
B|-------6--5--6--5--6--5--656-1-3-1-3-131--------------------------------|
G|------------------------------------------------------------------------|
D|------------------------------------------------------------------------|
A|-----------------------------------------------------------------------|x4
E|------------------------------------------------------------------------|


Ending:

e|-1----1----1----------------5-5-5-5-1-----------------------------------|
B|-1----1----1---------8-8-8-8--------------------------------------------|
G|--2h5--2h5--2h5---5-5---------------------------------------------------|
D|------------------------------------------------------------------------|
A|------------------------------------------------------------------------|
E|------------------------------------------------------------------------|


| h  hammer-on

===========================================================================
Tap to rate this tab
# A B C D E F G H I J K L M N O P Q R S T U V W X Y Z