Song name
# A B C D E F G H I J K L M N O P Q R S T U V W X Y Z

The Original Rudeboys - Stars In My Eyes tab

-------------------------------------------------------------------------------
                             STARS IN MY EYES - The Original Rudeboys
-------------------------------------------------------------------------------
Tabbed by:2and2is3
E-mail:Jwd1393@hotmail.com or james.duffy28@mail.dcu.ie

Tuning:Standard

I may be playing this in a different key but if you use the chord shapes I'm sure you'll 
be able to transpose it into the right one or even another one to suit your voice more!

e|---------------------------------------------------------------------------|
B|----10-9-9---7-------------------------------------------------------------|
G|---------9-----6-6---------------------------------------------------------|
D|-11----9---7-----7---------------------------------------------------------|
A|---------------7-----------------------------------------------------------|
E|---------------------------------------------------------------------------|

I use the chord shapes of
   F#m    E    D   A
e|-9------7----5---5---------------------------------------------------------|
B|-10-----9----7---5---------------------------------------------------------|
G|-11-----9----7---6---------------------------------------------------------|
D|-11-----9----7---7---------------------------------------------------------|
A|-9------7----5---7---------------------------------------------------------|
E|-9------7----5---5---------------------------------------------------------|

The ukele part seems to be

e|---------------------------------------------------------------------------|
B|----10-9-9-10/12-10/12-10--------------------------------------------------|
G|---------9-----------------------------------------------------------------|
D|-11----9-------------------------------------------------------------------|
A|---------------------------------------------------------------------------|
E|---------------------------------------------------------------------------|

Hope this helped people. Comment with any improvements/corrections and please rate :)
Tap to rate this tab
 
# A B C D E F G H I J K L M N O P Q R S T U V W X Y Z