Guitaretab - guitar tabs
Song name
# A B C D E F G H I J K L M N O P Q R S T U V W X Y Z

The Orion Experience - Obsessed With You tab

Highlighted       Show chord diagrams
e|----------------------------------------------------------------|
B|----------------------------------------------------------------|
G|----------------------------------------------------------------|
D|-0-3-0-3-0-3-----3-2--------------------------------------------|
A|-------------0-4------------------------------------------------|
E|----------------------------------------------------------------|  

               Dm           F      
I've got your picture on my wall.
         A               Dm
I dream about you when I sleep.
               Dm                   F
I go out of my way, everyday, just hoping that
                A
I'll catch you walking down your street.
             Dm                 F
I know just where you went to school.
            A                 Dm
I know the names of all your friends.
        Dm               F
Oh God I've got it bad again,
    A
An o-b-s-e-s-s-i-o-n.
   Dm               F
I know your middle name.
           A             Dm
I've got a lock of your hair.
          Dm              F
I'm just a little bit insane,
               A
Cause I think I see you everywhere.
                 Dm              F
My friends, they just don't understand.
            A               Dm
They cannot see my point of view.
              Dm              F
They say it's gotten out of hand,
          A
That I'm obsessed with you.
              Dm       F
I want to get next to you.
             A              Dm
Yeah I love all the things you do.
               Dm       F
I want to get close to you.
            A
You are my dream come true.
               Dm        F
I want to have sex with you.
             A          Dm
Your sweet caress won't do.
            Dm           F
Cause I'm obsessed with you.
            Bb      A   D
Yeah I'm obsessed with you.
[ Tab from: http://www.guitaretab.com/t/the-orion-experience/108942.html ]
Your smile sets my heart aflame.
Electrocute me with your eyes.
The very mention of your name,
My stomach fills with butterflies.
Your love is better than cocaine
I need you more than oxygen.
Oh God I've got it bad again,
An o-b-s-e-s-s-i-o-n.
I know your middle name.
I've got a lock of your hair.
I'm just a little bit insane,
Cause I think I see you everywhere.
My friends, they just don't understand.
They cannot see my point of view.
They say it's gotten out of hand,
And I'm obsessed with you.

I want to get next to you.
Yeah I love all the things you do.
I want to get close to you.
You are my dream come true.
I want to have sex with you.
Your sweet caress won't do.
Cause I'm obsessed with you.
Yeah I'm obsessed with you.

  F     C           Bb       F
You and me, we were meant to be.
  F       C          Bb    F
We live happily in my fantasy.
       F                 C
We go walking down the aisle,
          Bb             F
Yeah you look at me and smile.
     F           C             Bb  A  D
My alarm clock rings, I wake up in denial.


e|---------------------------|---------------------------------------------|
B|---------------------------|------9-12b---9-12-12-9----------------------|
G|------9-11b---9-11-11-9----|-9-11-------------------11-------------------|
D|-9-11-------------------11-|---------------------------------------------|
A|---------------------------|---------------------------------------------|
E|---------------------------|---------------------------------------------|  


e|-12-12-12-9-9-9-------------------|-12-12-12-10-10-10--------------------|
B|----------------12-12-12-10-10-10-|-------------------12-12-12-10-10-10--|
G|----------------------------------|--------------------------------------|
D|----------------------------------|--------------------------------------|
A|----------------------------------|--------------------------------------|
E|----------------------------------|--------------------------------------|  


e|-12-12-12-9-9-9-------------------|-10p12--------------------------------|
B|-12-12-12-9-9-9-12-12-12-10-10-10-|-10p12--10----------------------------|
G|----------------11-11-11--9--9--9-|--------------------------------------|
D|----------------------------------|--------------------------------------|
A|----------------------------------|--------------------------------------|
E|----------------------------------|--------------------------------------|  

I want to get next to you.
Yeah I love all the things you do.
I want to get close to you.
You are my dream come true.
I want to have sex with you.
Your sweet caress won't do.
Cause I'm obsessed with you.
Yeah I'm obsessed with you.
Related for Obsessed With You tab
Advertisement will be closed in 10 seconds