The Orion Experience - Obsessed With You tab

-----------------------------------------------------------------
Obsessed with You - The Orion Experience
-----------------------------------------------------------------
Tabbed by: reef rox
Email:
Tuning: Standard


Intro

E|---------------------------------------------------------------|
B|---------------------------------------------------------------|
G|---2---2---2---2---2---2---------------------------------------|
D|-0---3---0---3---0---3--------3-2---------------X2-------------|
A|--------------------------0-4----------------------------------|
E|---------------------------------------------------------------|



Gtr 1 (w/Riff 1)

   Dm           Bb        F                       x3

Riff 1 
E|---------------------------------------------------------------|
B|---------------------------------------------------------------|
G|------2--------------------------------------------------------|
D|--0-3--------3-0--------3-0--------3333--0------X3-------------|
A|-----------------3----------3--------------3-------------------|
E|---------------------------------------------------------------|

Gtr 1 (w/Riff 1)...Cont'd

    C           Bb        F          A

Riff 1 (cont'd)
E|---------------------------------------------------------------|
B|---------------------------------------------------------------|
G|---------5-----------------------------------------------------|
D|---------5--------------3-0--------3333--0---------------------|
A|--3-5/7-------3/5-3---------3--------------0-------------------|
E|--------------------6------------------------------------------|




Vrs 1 
                 Dm            Bb            F
   I've got your picture on my wall, I dream about you when I sleep 
                 Dm            Bb            F
   I go outta my way, everyday just hoping that I catch you walking down the street
                 Dm            Bb            F
   I know just where you went to school, I know the names of all your friends
        *C        Bb          F          A 
   I've got it bad again, an O-B-S-E-S-S-I-O-N

   *w/end of Riff 1 
E|---------------------------------------------------------------|
B|---------------------------------------------------------------|
G|---------5-----------------------------------------------------|
D|---------5--------------3-0--------3333--0---------------------|
A|--3-5/7-------3/5-3---------3--------------0-------------------|
E|--------------------6------------------------------------------|

(w/Riff 1)       Dm            Bb            F
   I know your middle name, I've got a lock of your hair
                 Dm            Bb            F
   I'm just a little bit insane cuz I think I see ya everywhere
                 Dm            Bb            F
   My friends they just don't understand, they cannot see my point of view
                *C             Bb            F                  
   They say it's gotten outta hand and I'm obsessed with you
   
   *w/end of Riff 1 (modified end note before each chorus hanging on F)
E|---------------------------------------------------------------|
B|---------------------------------------------------------------|
G|---------5-----------------------------------------------------|
D|---------5--------------3-0--------3333--0---------------------|
A|--3-5/7-------3/5-3---------3--------------3-------------------|
E|--------------------6------------------------------------------|





CHORUS (w/Gtr 2)
   
                   BbMaj7    F 
   But I wanna get next to you
                   C       Dm7
   yeah I love all the things you do
                   BbMaj7    F 
   I wanna get close to you
                   C       Dm7
   You are my dream come true
                   BbMaj7    F 
   I wanna have sex with you
                   C       Dm7
   Your sweet caress won't do
                   BbMaj7    F 
   Cuz I'm obsessed with you
                   A       Dm
   Yeah I'm obsessed with you


CHORUS Gtr2 (Refer to recording for strumming) 
      (BbMaj7) (F)    (C)    (Dm7)      
E|-------5------5------------------------------------------------|
B|-------6------6------5-----5-/-6-------------------------------|
G|-------7------5------5-----5-/-5---------X3--------------------|
D|-------8------7------5-----5-/-7-------------------------------|
A|---------------------------------------------------------------|
E|---------------------------------------------------------------|

      (BbMaj7) (F)    (A)       (Dm)      
E|-------5------5------5----------5------------------------------|
B|-------6------6------5----------6------------------------------|
G|-------7------5------6----------7------------------------------|
D|-------8------7------7---7------7------------------------------|
A|---------------------7---4------5------------------------------|
E|---------------------5-----------------------------------------|



Vrs 2 
                 Dm            Bb            F
   Your smile sets my heart aflame, electrocute me with your eyes
                 Dm            Bb            F
   The very mention of your name, my stomach fills with butterflies
                 Dm            Bb            F
   Your love is better than cocaine, I need you more than oxygen
        *C        Bb          F          A 
   I've got it bad again, an O-B-S-E-S-S-I-O-N

  *w/end of Riff 1 
E|---------------------------------------------------------------|
B|---------------------------------------------------------------|
G|---------5-----------------------------------------------------|
D|---------5--------------3-0--------3333--0---------------------|
A|--3-5/7-------3/5-3---------3--------------0-------------------|
E|--------------------6------------------------------------------|

w/Riff 1         Dm            Bb            F
   I know your middle name, I've got a lock of your hair
                 Dm            Bb            F
   I'm just a little bit insane cuz I think I see ya everywhere
                 Dm            Bb            F
   My friends they just don't understand, they cannot see my point of view
                *C             Bb            F                  
   They say it's gotten outta hand and I'm obsessed with you
   
 
  *w/end of Riff 1 (modified end note before each chorus hanging on F)
E|---------------------------------------------------------------|
B|---------------------------------------------------------------|
G|---------5-----------------------------------------------------|
D|---------5--------------3-0--------3333--0---------------------|
A|--3-5/7-------3/5-3---------3--------------3-------------------|
E|--------------------6------------------------------------------|



CHORUS 


BRIDGE (w/Gtr 2)

      Gm      C           Bb       F
Whoa you and me, we were meant to be
      Gm      C           Bb       F
We'll live happily in my fantasy
      Gm      C           Bb       F
We go walking down the isle, yeah ya look at me and smile
      Gm      C           A        Dm
My alarm clock rings, I wake up in denial


BRIDGE Gtr 2 (Refer to recording for strumming)

    (Gm7)             (C)     (Bb)        (F)
E|---------------------8-------6---------------------------------|
B|--10-/-11-\-10-------8-------6-----------------------10--------|
G|--10-/-10-\-10-------9-------7--------------10--10---10--------|
D|--10-/-12-\-10------10-------8---------10---10--10h12----------|
A|--------------------10-------8---------10h12-------------------|
E|---------------------8-------6---------------------------------|

    (Gm7)             (C)     (Bb)        (F)
E|---------------------8-------6---------------------------------|
B|--10-/-11-\-10-------8-------6---------------------------------|
G|--10-/-10-\-10-------9-------7--------------10--10-------------|
D|--10-/-12-\-10------10-------8---------10---10--10h12p10-------|
A|--------------------10-------8---------10h12------------12-----|
E|---------------------8-------6---------------------------------|

    (Gm7)             (C)     (Bb)        (F)
E|-----------------------------6---------------------------------|
B|--10-/-11-\-10-----8/6/5-----6------------------------10-------|
G|--10-/-10-\-10-----9/7/5-----7---------------10--10---10-------|
D|--10-/-12-\-10---------------8----------10---10--10h12---------|
A|-----------------------------8----------10h12------------------|
E|-----------------------------6---------------------------------|

    (Gm7)             (C)     (A)          (Dm)
E|---------------------8--------------------5--------------------|
B|--10-/-11-\-10-------8--------------------6--------------------|
G|--10-/-10-\-10-------9------------5h7-----7--------------------|
D|--10-/-12-\-10------10-------5h7----------7--------------------|
A|--------------------10--------------------5--------------------|
E|---------------------8-----------------------------------------|


Guitar Solo
              Dm       Bb             F
E|---------------------------------------------------------------|
B|---------------------------------------------------------------|
G|------10-12-12b----12p10----10--12--10-------------------------|
D|--/12--------------------12-------------12---------------------|
A|---------------------------------------------------------------|
E|---------------------------------------------------------------|
              Dm       Bb             F
E|---------------------------------------------------------------|
B|------13-15-15b----15--13--15----------------------------------|
G|--/14-------------------------14v/-----------------------------|
D|---------------------------------------------------------------|
A|---------------------------------------------------------------|
E|---------------------------------------------------------------|
              Dm       Bb             F
E|--13-13-13--------------------------------13-13-13--------------------------------|
B|--15-15-15--13-13-13----------------------13-13-13--13-13-13----------------------|
G|------------14-14-14--14-14-14--10-10-10------------14-14-14--14-14-14------------|
D|----------------------15-15-15--12-12-12----------------------15-15-15--15-15-15--|
A|------------------------------------------------------------------------15-15-15--|
E|----------------------------------------------------------------------------------|
              C        Bb             F
E|--12---12\10---10---8---6---5h6p5------------------------------|
B|---------------------------------------------------------------|
G|--12---12\10---10---9---7---5----------------------------------|
D|---------------------------------------------------------------|
A|---------------------------------------------------------------|
E|---------------------------------------------------------------|


BRIDGE (w/Gtr 2)

CHORUS


Enjoy!
reef rox

Tablature Notation

h - hammer on 
p - pull off 
b - bend string up
r - release bend
/ - slide up
\ - slide down
v - vibrato (or ~)
t - right hand tap
x - play 'note' with heavy muting
Tap to rate this tab
 
# A B C D E F G H I J K L M N O P Q R S T U V W X Y Z