Song name
# A B C D E F G H I J K L M N O P Q R S T U V W X Y Z

The Orwells - Who Needs You tab

Standard Tuning 

Intro/Chorus
Lead 
e--------------------------------------------------------------------------------------|
b--------------------------------------------------------------------------------------|
g-10-9-7-9-10-10-9-9-7-7---------------------------------------------------------------|
d------------------------10-10-7-7-7----7-7-7------------------------------------------|
a------------------------------------10-------10-8-8-8-10-8-8-8-8-10-10-10-10-10-8-7---|
e------------------------------------------------------------------------------------8-|

e-----------------------------------------------------------------------------|
b-----------------------------------------------------------------------------|
g-10-10-9-9-7-7---------------------------------------------------------------|
d---------------10-10-7-7-7----7-7-7------------------------------------------|
a---------------------------10-------10-8-8-8-10-8-8-8-8-10-10-10-10-10-8-7---|
e---------------------------------------------------------------------------8-|

Rhythm (Can omit bottom two strings if you want to)
e--11111111-55555555-66666666--8-8-8-8-8-8-8-8--8-6-5-1--|
b--11111111-55555555-66666666--8-8-8-8-8-8-8-8--8-6-5-1--|
g--22222222-66666666-77777777--9-9-9-9-9-9-9-9--9-7-6-2--| 2x
d--33333333-77777777-88888888-1010101010101010-10-8-7-3--|
a-(33333333-77777777-88888888-1010101010101010-10-8-7-3)-|
e-(11111111-55555555-66666666--8-8-8-8-8-8-8-8--8-6-5-1)-|

Verse
Lead
e-------------------------------------------------------------------------------------------------------------|
b-------------------------------------------------------------------------------------------------------------|
g-------------------------------------------------------------------------------------------------------------|
d7~-----------------------------------------------------------------------------------------------------------|
a-----10-8~--10-8~--10--8--7--8~--7------7------10--8--7--8~--7------7------10--8--7--8~---7~---------8-7----7|
e-----------------------------------10~----10~------------------10~----10~----------------------10~-------10--|

Bridge
Lead
e------------------       ----------------------|
b------------------     t ----------------------|
g----5-7~---5~-----     h -10~-9~-7~---10-9-7-9-|
d-7~-x-x~---x~----- 3x  e --x~-x~-x~----x-x-x-x-|
a-x~-3-5~---3~-----     n --8~-7~-5~----8-7-5-7-|
e-5~---------------       ----------------------|
Tap to rate this tab
# A B C D E F G H I J K L M N O P Q R S T U V W X Y Z