Song name
# A B C D E F G H I J K L M N O P Q R S T U V W X Y Z

The Osmonds - Crazy Horses tab

Crazy Horses Solo
-----------------
Add your own hammer on's etc...


----12-10-12---------------------------------e
-13---------13-10-10-------------------------b
---------------------13-14-------------------g
---------------------------12-14-------------d
---------------------------------15--12--12--a
---------------------------------------------E


---------------------------------------------e
---------------------------------------------b
---------------------------------------------g
-----------------12-14-12--14p12-------------d
--b15-12-b15-12------------------15--12--12--a 
---------------------------------------------E


Repeat Twice and slide finish from 12th Fret 
into the D barre chord (5th Fret)

If its wrong please comment
Cheers
Tap to rate this tab
# A B C D E F G H I J K L M N O P Q R S T U V W X Y Z