Song name
# A B C D E F G H I J K L M N O P Q R S T U V W X Y Z

The Other - In League With The Devil tab

The Other
In League With The Devil
From "New Blood" - 2010
Tab by blackoctober119
Tuning: Drop D

Intro:
e|----------------------------------------------------------------|
B|----------------------------------------------------------------|
G|----------------------------------------------------------------|
D|--2/4-44--4-4-4--00-2/4-44--4-4-4--00-2/4-44--4-4-4--00-0~--2~--| X2
A|--2/4-44--4-4-4--00-2/4-44--4-4-4--00-2/4-44--4-4-4--00-0~--2~--|
D|--2/4-44--4-4-4--00-2/4-44--4-4-4--00-2/4-44--4-4-4--00-0~--2~--|
PM      X   X X    XX     X   X X    XX   X     X X    XX

Verse(x2):
e|------------------------------------------------------------------------|
B|------------------------------------------------------------------------|
G|------------------------------------------------------------------------|
D|--2/4-4-4-4-4-4-4-00-2/4-4-4-4-4-4-4-00-2/4-4-4-4-4-4-4-0--0-0-2-0-2-0--|
A|--2/4-4-4-4-4-4-4-00-2/4-4-4-4-4-4-4-00-2/4-4-4-4-4-4-4-0--0-0-2-0-2-0--|
D|--2/4-4-4-4-4-4-4-00-2/4-4-4-4-4-4-4-00-2/4-4-4-4-4-4-4-0--0-0-2-0-2-0--|
PM      X X X X X X XX   X X X X X X   XX     X X X X X X X  X   X   X

e|-------------------------------------------------------------------|
B|-------------------------------------------------------------------|
G|-------------------------------------------------------------------|
D|--2/4-4-4-4-4-4-4-00-2/4-4-4-4-4-4-4-00-2/4-4-4-4-4-4-4--7~---2~---|
A|--2/4-4-4-4-4-4-4-00-2/4-4-4-4-4-4-4-00-2/4-4-4-4-4-4-4--7~---2~---|
D|--2/4-4-4-4-4-4-4-00-2/4-4-4-4-4-4-4-00-2/4-4-4-4-4-4-4--7~---2~---|
PM      X X X X X X XX   X X X X X X   XX     X X X X X X

Pre-chorus:
e|--------------------------------|
B|--------------------------------|
G|--------------------------------|
D|--0~-----------------2~---------|
A|--0~---<2>b-rb<2>v-0-2~---------|
D|--0~-----------------2~---2b-rb-|

e|-------------------------------------------|
B|-------------------------------------------|
G|-------------------------------------------|
D|--0~-----------------2~---2-2-2-2-2-2-2-2--|
A|--0~---<2>b-rb<2>v-0-2~---2-2-2-2-2-2-2-2--|
D|--0~-----------------2~---2-2-2-2-2-2-2-2--|
PM                          X X X X X X X X

Chorus(x8):
e|----------------------|
B|----------------------|
G|----------------------|
D|--4-4--4-0-7-0-9-0-2--|
A|--4-4--4-0-7-0-9-0-2--|
D|--4-4--4-0-7-0-9-0-2--|
PM         X   X   X

Pre-verse:
e|-------|
B|-------|
G|-------|
D|--4~---|
A|--4~---|
D|--4~---|

Verse:
Bass plays by itself for a few bars, then:
e|------------------------------------------------------------------------|
B|------------------------------------------------------------------------|
G|------------------------------------------------------------------------|
D|--2/4-4-4-4-4-4-4-00-2/4-4-4-4-4-4-4-00-2/4-4-4-4-4-4-4-0--0-0-2-0-2-0--|
A|--2/4-4-4-4-4-4-4-00-2/4-4-4-4-4-4-4-00-2/4-4-4-4-4-4-4-0--0-0-2-0-2-0--|
D|--2/4-4-4-4-4-4-4-00-2/4-4-4-4-4-4-4-00-2/4-4-4-4-4-4-4-0--0-0-2-0-2-0--|
PM      X X X X X X XX   X X X X X X   XX     X X X X X X X  X   X   X

e|-------------------------------------------------------------------|
B|-------------------------------------------------------------------|
G|-------------------------------------------------------------------|
D|--2/4-4-4-4-4-4-4-00-2/4-4-4-4-4-4-4-00-2/4-4-4-4-4-4-4--7~---2~---|
A|--2/4-4-4-4-4-4-4-00-2/4-4-4-4-4-4-4-00-2/4-4-4-4-4-4-4--7~---2~---|
D|--2/4-4-4-4-4-4-4-00-2/4-4-4-4-4-4-4-00-2/4-4-4-4-4-4-4--7~---2~---|
PM      X X X X X X XX   X X X X X X   XX     X X X X X X

Pre-chorus:
e|--------------------------------|
B|--------------------------------|
G|--------------------------------|
D|--0~-----------------2~---------|
A|--0~---<2>b-rb<2>v-0-2~---------|
D|--0~-----------------2~---2b-rb-|

e|-------------------------------------------|
B|-------------------------------------------|
G|-------------------------------------------|
D|--0~-----------------2~---2-2-2-2-2-2-2-2--|
A|--0~---<2>b-rb<2>v-0-2~---2-2-2-2-2-2-2-2--|
D|--0~-----------------2~---2-2-2-2-2-2-2-2--|
PM                          X X X X X X X X

Chorus(x8):
e|----------------------|
B|----------------------|
G|----------------------|
D|--4-4--4-0-7-0-9-0-2--|
A|--4-4--4-0-7-0-9-0-2--|
D|--4-4--4-0-7-0-9-0-2--|
PM         X   X   X

Bridge:
e|------------------7-------|
B|-------10~------------10--|
G|--9/11------11--7---9-----|
D|--------------------------| X11
A|--------------------------|
D|--------------------------|

e|----------------|
B|----------------|
G|----------------|
D|--4----xx--///--|
A|--4----xx--///--|
D|--4----xx--///--|

Chorus(x8):
e|----------------------|
B|----------------------|
G|----------------------|
D|--4-4--4-0-7-0-9-0-2--|
A|--4-4--4-0-7-0-9-0-2--|
D|--4-4--4-0-7-0-9-0-2--|
PM         X   X   X

Outro:
e|-----------------------------------------------|
B|-----------------------------------------------|
G|-----------------------------------------------|
D|----<4>v~-------------------<4>v~--------------|
A|------------<0>-<2>-----------------<0>-<2>----|
D|--4-----------------<2>v--4-----------------2--|
PM  X                       X

e|------------------------------------------------|
B|------------------------------------------------|
G|------------------------------------------------|
D|-----<4>v~----------------<4>v~-----------2-4~--|
A|-------------<0>-<2>-------------<0>-<2>--2-4~--|
D|--/4-----------------2-/4-----------------2-4~--|
PM   X                    X



Legend:
PM = Palm Mute
<> = Pinch Harmonic
 x = Mute Strings
 b = Bend
rb = Release Bend
 v = Vibrato
 ~ = Sustain Note
 / = Slide
Tap to rate this tab
 
# A B C D E F G H I J K L M N O P Q R S T U V W X Y Z