Guitaretab - guitar tabs
Song name
# A B C D E F G H I J K L M N O P Q R S T U V W X Y Z

The Other - Passion For The Kill tab

-------------------------------------------------------------------------------
			  Pasion For The Kill - The Other
-------------------------------------------------------------------------------
Tabbed by: Omar Garcia
Email: ravage.cramoisi@gmail.com

Tuning: Standar

x = Mute Note

Listen to the song to get the rhythm


Intro
           x3
e|-------------------------|-------------|
B|-------------------------|-------------|
G|-------------------------|-------------|
D|-88888--11-11-11-9-11-11-|-66666-77777-| x2
A|-66666--9--9--9--7-9--9--|-44444-55555-|
E|-------------------------|-------------|

Verse
e|---------------------------------------------------------------------------|
B|---------------------------------------------------------------------------|
G|---------------------------------------------------------------------------|
D|-44444--------------44444------------44444---------------44444-66666-77777-|
A|-22222-4xx4xx4x4444-22222-4xx4xx-3-4-22222-4xx4xx4x4444--22222-44444-55555-|
E|-------2xx2xx2x2222-------2xx2xx-1-2-------2xx2xx2x2222--------------------|

Look into my eyes I wanna see you die
I am the master of your pain
look into my eyes I wanna see you die Iím insane
come on look into my face and See me smile
I like inflicting pain
I am insane I am insane!

Chorus
         x3
e|-----------------|-------------|
B|-----------------|-------------|
G|-----------------|-------------|
D|-88888--11-10-11-|-66666-66666-| x2
A|-66666--9--8--9--|-44444-55555-|
E|-----------------|-------------|

Running wild 
collecting lives 
I got a passion for the kill

Verse
e|---------------------------------------------------------------------------|
B|---------------------------------------------------------------------------|
G|---------------------------------------------------------------------------|
D|-44444--------------44444------------44444---------------44444-66666-77777-|
A|-22222-4xx4xx4x4444-22222-4xx4xx-3-4-22222-4xx4xx4x4444--22222-44444-55555-|
E|-------2xx2xx2x2222-------2xx2xx-1-2-------2xx2xx2x2222--------------------|
[ Tab from: http://www.guitaretab.com/t/the-other/94263.html ]
Look i1nto my eyes see my tainted soul
itís black and canít be saved
look into my eyes see my tainted soul
youíll see hate
look into my eyes and see my soul
your pain is what I crave
I like to hate I like to hate!

Chorus
         x3
e|-----------------|-------------|
B|-----------------|-------------|
G|-----------------|-------------|
D|-88888--11-10-11-|-66666-66666-| x2
A|-66666--9--8--9--|-44444-55555-|
E|-----------------|-------------|

Running wild 
collecting lives 
I got a passion for the kill

Bridge
e|-----------------------------|
B|-----------------------------|
G|-----------------------------|
D|-88888-88888-77777--11-10-11-| x4
A|-66666-66666-55555--9--8--9--|
E|-----------------------------|

Verse
e|---------------------------------------------------------------------------|
B|---------------------------------------------------------------------------|
G|---------------------------------------------------------------------------|
D|-44444--------------44444------------44444---------------44444-66666-77777-|
A|-22222-4xx4xx4x4444-22222-4xx4xx-3-4-22222-4xx4xx4x4444--22222-44444-55555-|
E|-------2xx2xx2x2222-------2xx2xx-1-2-------2xx2xx2x2222--------------------|

Sie mich an, ich will dich sterben sehen
ich bin der meister der pein
sieh mich an, ich will dich sterben sehen
du bist mein
sieh mich an, ich will dein leiden sehen
dein schmerz ist energie
ich sterbe nie ich sterbe nie!

Chorus
         x3
e|-----------------|-------------|
B|-----------------|-------------|
G|-----------------|-------------|
D|-88888--11-10-11-|-66666-66666-| x2
A|-66666--9--8--9--|-44444-55555-|
E|-----------------|-------------|

Running wild 
collecting lives 
I got a passion for the kill

Outro
e|---------------------------------------------------|
B|---------------------------------------------------|
G|---------------------------------------------------|
D|---------------------------------------------------|
A|-4xx4xx4xx4xx4xx4xx4xx4xx4xx4xx4xx4xx4xx4xx4xx---4-|
E|-2xx2xx2xx2xx2xx2xx2xx2xx2xx2xx2xx2xx2xx2xx2xx---2-|
===============================================================================
Related for Passion For The Kill tab