Song name
# A B C D E F G H I J K L M N O P Q R S T U V W X Y Z

The Other - In The Dead Of Night tab

Help us improve GuitareTab! Take a short survey!
-------------------------------------------------------------------------------
			 In The Dead Of Night - The Other
-------------------------------------------------------------------------------
Tabbed by: Omar Garcia
Email: ravage.cramoisi@gmail.com

Tuning: Standar

pm = Palm Mute
* = Ring

Listen to the song to get the rhythm


Intro
e|---------------------------------------------------------|
B|---------------------------------------------------------|
G|-555555--------555555--------555555----------------------|
D|-555555-333333-555555-666555-555555-333333-555555-333333-| x2
A|-333333-333333-333333-666555-333333-333333-555555-333333-|
E|--------111111--------444333--------111111-333333-111111-|
pm         .....                       ..... ...... ......

Verse
e|---------------------------------------|
B|---------------------------------------|
G|-5*------7*---------3-5*------7*-------|
D|-5*--3*--7*-7*-5*---3-5*--3*--7*-7*-5*-|
A|-3*--3*--5*-7*-5*---2-3*--3*--5*-7*-5*-|
E|-----1*-----5*-3*---------1*-----5*-3*-|

Making out on a night like this
the moon is full, the air is chilled
and soon you're gonna be all mine
our passion running high
my claws between your thighs
girl you're begging for my bite

Pre-Chorus
e|------------------|
B|------------------|
G|-77777777777---5*-|
D|-77777777777---5*-| x4
A|-55555555555---3*-|
E|------------------|
pm  ..........

We'll be alright
hunting in the dark
we'll be alive
you and I tonite
you and I tonite

Chorus
e|-----------------------------|
B|-----------------------------|
G|-5555555------------------5*-|
D|-5555555--333333--666666--5*-| x2
A|-3333333--333333--666666--3*-|
E|----------111111--444444-----|

In the dead of night
in the dead of night
in the dead of night
we're alright yeah, we're alright
in the dead of night
in the dead of night
in the dead of night
we're alright yeah

Post-Chorus
e|---------------------------------------------------------|
B|---------------------------------------------------------|
G|-555555--------555555--------555555----------------------|
D|-555555-333333-555555-666555-555555-333333-555555-333333-|
A|-333333-333333-333333-666555-333333-333333-555555-333333-|
E|--------111111--------444333--------111111-333333-111111-|
pm         .....                       ..... ...... ......

Verse
e|---------------------------------------|
B|---------------------------------------|
G|-5*------7*---------3-5*------7*-------|
D|-5*--3*--7*-7*-5*---3-5*--3*--7*-7*-5*-|
A|-3*--3*--5*-7*-5*---2-3*--3*--5*-7*-5*-|
E|-----1*-----5*-3*---------1*-----5*-3*-|

My teeth are drawing blood
white skin now coloured red
you cry in pleasure, you moan in pain
our union sealed in blood
the change is imminent
you're the queen of the lycanthropes

Pre-Chorus
e|------------------|
B|------------------|
G|-77777777777---5*-|
D|-77777777777---5*-| x4
A|-55555555555---3*-|
E|------------------|
pm  ..........

We'll be alright
hunting in the dark
we'll be alive
you and I tonite
you and I tonite

Chorus
e|-----------------------------|
B|-----------------------------|
G|-5555555------------------5*-|
D|-5555555--333333--666666--5*-| x2
A|-3333333--333333--666666--3*-|
E|----------111111--444444-----|

In the dead of night
in the dead of night
in the dead of night
we're alright yeah, we're alright
in the dead of night
in the dead of night
in the dead of night
we're alright yeah

Solo
e|----------------------------------------|
B|----------------------------------------|
G|----------------------------------------|
D|----------------------------------------| x2
A|-3*--5-6-5-3*--5-6-5-3*-5-6-5-8-6-5-2-3-|
E|----------------------------------------|

Bridge
e|------------------------------------------------------|
B|------------------------------------------------------|
G|-55555555555555-55555555555555-55555555555555--7*--5*-|
D|-55555555555555-55555555555555-55555555555555--7*--5*-| x2
A|-33333333333333-33333333333333-33333333333333--5*--3*-|
E|------------------------------------------------------|
   ..... .. . . . ..... .. . . . ..... .. . . .

Left you alone
my mind was blank
I needed time to think to get the memories from my mind
what did I see, cannot believe
that what I did to you was real and not just fantasy

Chorus
e|-----------------------------|
B|-----------------------------|
G|-5555555------------------5*-|
D|-5555555--333333--666666--5*-| x2
A|-3333333--333333--666666--3*-|
E|----------111111--444444-----|

In the dead of night
in the dead of night
in the dead of night
we're alright yeah, we're alright
in the dead of night
in the dead of night
in the dead of night
we're alright yeah

Outro
                          x2
e|---------------------------------------------------------|---|
B|---------------------------------------------------------|---|
G|-555555--------555555--------555555----------------------|-5-|
D|-555555-333333-555555-666555-555555-333333-555555-333333-|-5-|
A|-333333-333333-333333-666555-333333-333333-555555-333333-|-3-|
E|--------111111--------444333--------111111-333333-111111-|---|
pm         .....                       ..... ...... ......
===============================================================================
Related for In The Dead Of Night tab