Guitaretab - guitar tabs
Song name
# A B C D E F G H I J K L M N O P Q R S T U V W X Y Z

The Other - Lovers Lane tab

                             Lover's Lane
                               Firehouse
[ Tab from: http://www.guitaretab.com/t/the-other/94510.html ]
tabbed by Anival/Tricky.
intro:
repeat
--------------------------------------------------------------------------------|
--------------------------------------------------------------------------------|
-7--5--2-(2)-----7--5-----------------------------------------------------------|
-7--5--2-(2)-----7--5--5-(5)----------------------------------------------------|
-5--3--0-(0)-----5--3--5-(5)----------------------------------------------------|
-----------------------3-(3)----------------------------------------------------|

repeat a couple of times.
---------------------------------------------------------------------------------|
---------------------------------------------------------------------------------|
-----7h9--------9p7-----7-----5--------------------------------------------------|
-----7----------7-------------------4h5-5----------------------------------------|
----------0-0--------0-----0-----0------0----------------------------------------|
---------------------------------------------------------------------------------|

thats all i got. enjoy.
Related for Lovers Lane tab
Advertisement will be closed in 10 seconds