Song name
# A B C D E F G H I J K L M N O P Q R S T U V W X Y Z

The Others - Johan tab

-------------------------------------------------------------------------------
			     JOHAN - The Others
-------------------------------------------------------------------------------
Tabbed by: Joshua Dixon
Email: lazyasshero@hotmail.co.uk

Tuning: Standard

e|---------------------------------------------------------------------------|
B|---------------------------------------------------------------------------|
G|--4--2----------------------4-2--------------------------------------------|
D|----------5-4----------------------5-4------------------------2--0---------|
A|---------------2------2-5---------------2------0-2-5----0-2-5--------------|
E|---------------------------------------------------------------------------|

e|---------------------------------------------------------------------------|
B|---------------------------------------------------------------------------|
G|---------------------------------------------------------------------------|
D|-----------------2--0------------------------------------------------------|
A|--0-2-5----0-2-5-----------------------------------------------------------|
E|---------------------------------------------------------------------------|

(Verse comes in without guitar)

"despite the things you do..."

e|---------------------------------------------------------------------------|
B|---------------------------------------------------------------------------|
G|--4--2----------------------4-2--------------------------------------------|
D|----------5-4----------------------5-4/7-----------------------------------|
A|---------------2------2-5--------------------------------------------------|
E|---------------------------------------------------------------------------|

(Pre-chorus - "I remember meeting you...)

e|---------------------------------------------------------------------------|
B|---------------------------------------------------------------------------|
G|--9--7--9--7--11--9--11--9--9--7--9--7--11--9--11/12-----------------------|
D|---------------------------------------------------------------------------|
A|---------------------------------------------------------------------------|
E|---------------------------------------------------------------------------|

(Chorus)

e|---------------------------------------------------------------------------|
B|---------------------------------------------------------------------------|

D|--77777777----99999999--7--------------------------------------------------|
A|--55555555----99999999--7--------------------------------------------------|
E|--------------77777777--5--------------------------------------------------|

e|---------------------------------------------------------------------------|
B|---------------------------------------------------------------------------|
G|--4--2----------------------4-2--------------------------------------------|
D|----------5-4----------------------5-4/7-----------------------------------|
A|---------------2------2-5--------------------------------------------------|
E|---------------------------------------------------------------------------|

(Repeat chorus twice)

e|---------------------------------------------------------------------------|
B|---------------------------------------------------------------------------|
G|--4--2----------------------4-2--------------------------------------------|
D|----------5-4----------------------5-4/7-----------------------------------|
A|---------------2------2-5--------------------------------------------------|
E|---------------------------------------------------------------------------|

(Pre-chorus and chorus again)

For final chorus Jimmy plays this over the top:

e|--------------------------------------------------------------------------|
B|--3/10--3/7 (repeat throughout chorus)------------------------------------|
G|--------------------------------------------------------------------------|
D|--------------------------------------------------------------------------|
A|--------------------------------------------------------------------------|
E|--------------------------------------------------------------------------|


| /  slide up
| \  slide down
| h  hammer-on
| p  pull-off
| ~  vibrato
| +  harmonic
| x  Mute note
===============================================================================
Tap to rate this tab
 
# A B C D E F G H I J K L M N O P Q R S T U V W X Y Z