Song name
# A B C D E F G H I J K L M N O P Q R S T U V W X Y Z

The Otherside Band - Estudyante tab

Band/Artist: The Otherside Band
Song: Estudyante (Acoustic Version)
Tabbed by: L.G.T

If you wan’t to hear this song. Try to open the given link in youtube.  
http://www.youtube.com/watch?v=1_xGGslEAJA

Intro:

e|------------------------------------------------|
B|------------------------------------------------|
G|------------------------------------------------|
D|--------7-5-4-----------------------------------|
A|---5--5-------------7-9-------9-7-6-------5-7---|
E|---------------5--5------7--7--------3--3-------|

D-A-Bm-G-;2x

Verse:
D           A
Mama’g Papa sige’g pangutana 
D                  A
Kung kumusta na ang akong pag eskwela
Bm             G
Ingon ko ayos kaayo ma
Bm                 G
Kay naa koy daghang barkada

e|------------------------------------------------|
B|------------------------------------------------|
G|------------------------------------------------|
D|--------7-5-4-----------------------------------|
A|---5--5-------------7-9-------9-7-6-------5-7---|
E|---------------5--5------7--7--------3--3-------|

Chorus:
D          A
Estudyante ko 
Bm               G
Dako kaayo ko og grado
D              A
Sa recess og sa lunch break
Bm             G
Wala jud koy absent ma
D           A
Ang barkada ko 
Bm             G
Magbawn og generoso
D          A
Estudyante ko 
Bm         G        A
Apan walay ayong pagkatawo

D-A-Bm-G-;2x

Verse:
D               A
Wa pay reces magsige lang og kaon
D                    D
Kung sa udto sud-an sa canteen utangon
Bm                  G
Inig ka hapon mag una-una
Bm               G
Og uli kay wa kunoy maestra

e|------------------------------------------------|
B|------------------------------------------------|
G|------------------------------------------------|
D|--------7-5-4-----------------------------------|
A|---5--5-------------7-9-------9-7-6-------5-7---|
E|---------------5--5------7--7--------3--3-------|

Chorus:
D          A
Estudyante ko 
Bm               G
Dako kaayo ko og grado
D              A
Sa recess og sa lunch break
Bm             G
Wala jud koy absent ma
D           A
Ang barkada ko 
Bm             G
Magbawn og generoso
D          A
Estudyante ko 
Bm         G        A
Apan walay ayong pagkatawo

D-A-Bm-G-;2x

Verse:
D            A
Mama’g papa pwerting lagota
D                A
Akong card kay daghan kaayo og puwa
Bm                 G
Busa karon ako istamby na
Bm              G
Sa iskina kay di na kaeskwela

(Reggae part)
D-A-Bm-G-;2x

Chorus:
D          A
Estudyante ko 
Bm               G
Dako kaayo ko og grado
D              A
Sa recess og sa lunch break
Bm             G
Wala jud koy absent ma
D           A
Ang barkada ko 
Bm             G
Magbawn og generoso
D          A
Estudyante ko 
Bm         G        A       D      A
Apan walay ayong pagkatawo

Bm         G        A       D      A   
Apan walay ayong pagkatawo
Bm         G        A       D       
Apan walay ayong pagkatawo

Tap to rate this tab
# A B C D E F G H I J K L M N O P Q R S T U V W X Y Z