Song name
# A B C D E F G H I J K L M N O P Q R S T U V W X Y Z

The Otherside Band - Pag-antos tab

Band/Artist: The Otherside Band
Song: Pag-antos (Acoustic Version)
Tabbed by: L.G.T

If you wan’t to hear this song. Try to open the given link in youtube.  
http://www.youtube.com/watch?v=ZKkYehaw6I8

Chord used:
D    x577xx
D/C# x477xx
Bm   x244xx
G    355xxx
A    577xxx

Intro: 
e|----------0--------------0-----------------0---------------0--------|
B|------3-------3------3-------3---------3--------3------3-------3----|
G|--------------------------------------------------------------------|
D|--0-0---0---0----0-0---0---0---0------------------------------------|
A|-----------------------------------4-4---4----4----4-4---4---4---4--|
E|--------------------------------------------------------------------|

e|----------0--------------0------------------------------------------|
B|------3-------3------3-------3---------3---2---2h3-----3---2---2h3--|
G|--------------------------------------------------------------------|
D|--------------------------------------------------------------------|
A|--2-2---2---2----2-2---2---2---2---0-0---0---0-----0-0---0---0------|
E|--------------------------------------------------------------------|

(Strum...)
D--D/C#--Bm--G--;

Verse:
D                                D/C#
Pila na ka adlaw ang akong giantos
                                        Bm
Mura ko og si Kristo nga gilansang sa krus
                                      G
Ngano man ing-ana ka wa ka bay kasing-kasing

Pero day timan-e nga

Chorus: 
D       D/C#     Bm       A                      D
Antoson ko pagluha ning akong maanindot na mata
         D/C#      Bm       A          G
Og bisan pa og kapila ko nimo gi etsapwera
 A                           G
Ihatag ko ang tanan nakong gugma
 A              D--D/C#--Bm--G--;
Para lang maako ka

Verse:
D                            D/C#
Sa kadaghang babaye sa kalibutan
                                    Bm
Apan ngano ikaw paman ang akong gihigugma
                                   G
Salbahis ka kusog kaayo ka magita og laki

Pero day teman-e nga

Chorus: 
D       D/C#     Bm       A                      D
Antoson ko pagluha ning akong maanindot na mata
         D/C#      Bm       A          G
Og bisan pa og kapila ko nimo gi etsapwera
 A                           G
Ihatag ko ang tanan nakong gugma
 A              D--D/C#--Bm--G--;
Para lang maako ka

Verse:
D                             D/C#
Bisan og kadaghan na ni nahitabo
                        Bm
Ako lang kalimtan ang tanan
                             G
Og hinaot unta sa akong kamatayon

Imong mahuna-huna

Chorus: 
D       D/C#     Bm       A                      D
Antoson ko pagluha ning akong maanindot na mata
         D/C#      Bm       A          G
Og bisan pa og kapila ko nimo gi etsapwera
 A                           G
Ihatag ko ang tanan nakong gugma
 A              D
Para lang maako ka

Tap to rate this tab
 
# A B C D E F G H I J K L M N O P Q R S T U V W X Y Z