Song name
# A B C D E F G H I J K L M N O P Q R S T U V W X Y Z

The Outline - In Light Of Recent News tab

IN LIGHT OF RECENT NEWS

VERSE:
e--1----------1-------------0------------0----------------------------------------------------------------|
b-------1------------1-------------1------------1------1------3------1------3------1----0-----1------0----|
g----2-----2-----2------2------2-----2-----2------2------0------0------0------0-----0----0------0------0--|
d---------------------------------------------------------------------------------------------------------|
a---------------------------------------------------------------------------------------------------------|
e---------------------------------------------------------------------------------------------------------|

repeat that until the chorus

(im only putting the chords but u can figure out the rythm

Im not supposed to be...real
e--0------3--------------------------------------------------------|
b--1------3--------------------------------------------------------|
g--2------0--------------------------------------------------------|
d--3------0--------------------------------------------------------|
a--3------2--------------------------------------------------------|
e---------3--------------------------------------------------------|
FM7 G

But love is such an awful thing to lose...
e-------------0---------0------0--------0----0----------------------|
b----------------------------------------------1--------------------|
g----------5--------5-------5-------5--------2----------------------|
d------7--------6--------5-------4-----------3----------------------|
a----------------------------------------------3--------------------|
e-------------------------------------------------------------------|
FM7 strum this until verse


VERSE2: this is the same thing as verse one only the bass comes in
e--1----------1-------------0------------0----------------------------------------------------------------|
b-------1------------1-------------1------------1------1------3------1------3------1----0-----1------0----|
g----2-----2-----2------2------2-----2-----2------2------0------0------0------0-----0----0------0------0--|
d---------------------------------------------------------------------------------------------------------|
a---------------------------------------------------------------------------------------------------------|
e---------------------------------------------------------------------------------------------------------|
F Am C G

BRIDGE:Im not very confident about the first half but the rest should be prety accurate
e---------------------------------------------------------------|------|
b---------------------------------------------------------------|------|
g--2-2-2-2-2-2-2------------------5-5-5-5-5-5-5-----------------|--x2--|THEN-PLAY-THE-VERSE-AGAIN-BUT-LOUDER-AND-STRONGER
d--2-2-2-2-2-2-2---5-5-5-5-5-5-5--5-5-5-5-5-5-5--3-3-3-3-3-3-3--|------|
a--0-0-0-0-0-0-0---5-5-5-5-5-5-5--3-3-3-3-3-3-3--3-3-3-3-3-3-3--|------|
e------------------3-3-3-3-3-3-3-----------------1-1-1-1-1-1-1--|------|
Tap to rate this tab
 
# A B C D E F G H I J K L M N O P Q R S T U V W X Y Z